Washya Tabs

Singled Out

1 versions

TAB

            -----------------------------------------------------------------------------
                                  Singled Out - Washya
-----------------------------------------------------------------------------

Tuning: Drop B (BF#BEG#C#)
Intro
B|----------------|
F#|---------------|
B|----------------|
E|----------------|
G#|---------------|
C#|-00-5-1-0-1/5~-|
pm  ..   

Verses
B|-------------------------------|
F#|------------------------------|
B|-------------------------------|
E|-------------------------------|
G#|-------3-----------1----------|
C#|-0-5-6---1-0-6-5-0---3-0-1/5~-|
pm  . . . . . . . . . . . . . 

Chorus
B|---------------------------------|
F#|--------------------------------|
B|---------------------------------|
E|---------------------------------|
G#|--333-55-22-33--333-11-44-22-33-|
C#|--333-55-22-33--333-11-44-22-33-|

Interlude/Solo
B|--------------------|
F#|-------------------|
B|----7--------3------|
E|--------7~-------3~-|
G#|-9---9----5---5----|
C#|-------------------|    

Added On December 16th, 2013

SHARE

Comments

blog comments powered by Disqus

ADVERTISEMENT