Washya Tabs

Smythe

1 versions

TAB

            -------------------------------------------------------------------------------
                             Smythe - Washya
-------------------------------------------------------------------------------
Tabbed by:
E-mail:

Tuning: Drop B (BF#BEG#C#)
Intro
B|------------------------------------------------------------------------------------------------------------|
F#|-----------------------------------------------------------------------------------------------------------|
B|------------------------------------------------------------------------------------------------------------|
E|-------------------------------------------------------------------------------55555555555555555-444--------|
G#|2222222222222222222/14-14-14-14-14-14-14-14-14-14-14-14-14\777777777777777777\----------------------333-111|
C#|-----------------------------------------------------------------------------------------------------------|

Part 2
B|---------------------------------------------------------------------------------------|
F#|--------------------------------------------------------------------------------------|
B|---------------------------------------------------------------------------------------|
E|--0-0-1-1-0-0-1-1-0-0-1-1-0-0------------------0-0-1-1-0-0-1-1-0-0-1-1-----------------|
G#|-0-0-1-1-0-0-1-1-0-0-1-1-0-0-1111333344443333-0-0-1-1-0-0-1-1-0-0-1-1-----------------|
C#|-0-0-1-1-0-0-1-1-0-0-1-1-0-0------------------0-0-1-1-0-0-1-1-0-0-1-1-8888777711113333|

Verses
B|---------------------------------------------------------|
F#|--------------------------------------------------------|
B|---------------------------------------------------------|
E|--0~--/15-15-15-15-15-15-15-15-15-15-15-15-15-15-15\\----|
G#|-0~--------------------------------------------------16\|
C#|-0~-----------------------------------------------------|

Chorus
B|----------------------------------------------------------|
F#|---------------------------------------------------------|
B|--------10-9-8-------7-8-9-------3-5-6-----------5-4-3----|
E|--6-5-6-10-9-8-5-6-3-7-8-9-7-6-5-3-5-6-6-5-8-4-5-5-4-3-0-1|
G#|-6-5-6-8--7-6-5-6-3-5-6-7-7-6-5-1-3-4-6-5-8-4-5-3-2-1-0-1|
C#|-6-5-6--------5-6-3-------7-6-5-------6-5-8-4-5-------0-1|

************************************

| /   slide up
| \   slide down
| h   hammer-on
| p   pull-off
| ~   vibrato
| +   harmonic
| x   Mute note
| b   Bend
| pb  Pre-bend
| br  Bend release
| pbr Pre-bend release
| brb Bend release bend

************************************    

Added On January 24th, 2015

SHARE

Comments

blog comments powered by Disqus

ADVERTISEMENT