Washya Tabs

Snapdragon

1 versions

TAB

            -----------------------------------------------------------------------------
                         Snapdragon - Washya
-----------------------------------------------------------------------------
Tuning: Drop D (DADGBE)
Intro/Chorus
E|------------------------------------------|
B|------------------------------------------|
G|------------------------------------------|
D|-5555-44-9--5555-44-9--5555-44-9----------|
A|-3333-22-7--3333-22-7--3333-22-7-33355666-|
D|---------------------------------33355666-|

Verses
E|------------------------------------------------------|
B|------------------------------------------------------|
G|------------------------------------------------------|
D|------------------------------------------------------|
A|------1-1-4-3-1--1-1-4-3-1-------3-3-6-5-3--3-3-6-5-3-|
D|-1/12\1-1-4-3-1--1-1-4-3-1--1/12\3-3-6-5-3--3-3-6-5-3-|
PM      * *        * *             * *        * * 

Solo
E|--------------------------------------------------------------------13~-|
B|--------------------------------------------------10h12p10h12p10h12-----|
G|--------------------------------------------8-7-8-----------------------|
D|----------------------7/10p7---7h10p7---7/9-----------------------------|
A|----5-3---5-3-----7-5--------9--------9---------------------------------|
D|3-5-----5-----5-7-------------------------------------------------------|
PM* * * * * * * * * * * 

Verses
E|------------------------------------------------------|
B|------------------------------------------------------|
G|------------------------------------------------------|
D|------------------------------------------------------|
A|------1-1-4-3-1--1-1-4-3-1-------3-3-6-5-3--3-3-6-5-3-|
D|-1/12\1-1-4-3-1--1-1-4-3-1--1/12\3-3-6-5-3--3-3-6-5-3-|
PM      * *        * *             * *        * *    

Added On December 16th, 2013

SHARE

Comments

blog comments powered by Disqus

ADVERTISEMENT