Washya Tabs

Something Takes Me Apart

1 versions

TAB

            -------------------------------------------------------------------------------
                             Something takes me apart - Washya
-------------------------------------------------------------------------------
Tabbed by:
E-mail:

Tuning: Drop A (AEADF#B)
Intro
A|---------------------------------|
E|---------------------------------|
A|---------------------------------|
D|--0--0-1-00--0--0-1-00-0-1-3-1-00|
F#|-0--0-1-00--0--0-1-00-0-1-3-1-00|
B|--0--0-1-00--0--0-1-00-0-1-3-1-00|x3

Part 2
A|--------------------------------------------------------------------------------------------|
E|--------------------------------------------------------------------------------------------|
A|--------------------------------------------------------------------------------------------|
D|--00-0-0------4-4\3-00-0-0------1-1-0-------------------------------------------------------|
F#|-00-0-0------4-4\3-00-0-0------1-1-0-------------------------------------------------------|
B|--00-0-0-0000-4-4\3-00-0-0-0000-1-1-0-4-1-0-1-4-1-0-1-4-1-0-1/6-3-1-3-6-3-1-3-6-3-1-3-/8~-7~|
PM  ** * * ****       ** * * ****       * * * * * * * * * * * * * * * * * * * * * * * * 

Verses (play fast palm muted slightly)
A|-------------------------------------------------------------------------------------------------------|
E|-------------------------------------------------------------------------------------------------------|
A|-------------------------------------------------------------------------------------------------------|
D|-------------------------------------------------------------------------------------------------------|
F#|-------------------------------------------------------------------------------------------------8-7-1|
B|--4-1-0-1-4-1-0-1-4-1-0-1-4-1-0-1/6-3-1-3-6-3-1-3-6-3-1-3-6-3-1-3/4-1-0-1-4-1-0-1-4-1-0-1-4-1-0-1/8-7-1|
PM  * * * * * * * * * * * * * * * * * * * * * * * * * * * * * * * * * * * * * * * * * * * * * * * *  

Chorus
A|---------------------------------------------------|
E|---------------------------------------------------|
A|---------------------------------------------------|
D|----------------------------------5b---------------|
F#|---7h8p7\5-5b---6p5--------7h8p7----7-5b----------|
B|--0------------0-----8-7--0---------------5-7-8-7-5|
PM  *            *     * *  *               * * * * * 

************************************

| /   slide up
| \   slide down
| h   hammer-on
| p   pull-off
| ~   vibrato
| +   harmonic
| x   Mute note
| b   Bend
| pb  Pre-bend
| br  Bend release
| pbr Pre-bend release
| brb Bend release bend

************************************    

Added On January 1st, 2015

SHARE

Comments

blog comments powered by Disqus

ADVERTISEMENT