Washya Tabs

Spitfire

1 versions

TAB

            -------------------------------------------------------------------------------
              Spitfire - Washya
-------------------------------------------------------------------------------
Tuning: Drop D (DADGBE)
Intro
e|-------------------------------------------------------|
b|-------------------------------------------------------|
g|-------------------------------------------------------|
D|-00-6-000-5h6-3-00-6-000-5h6-3-00-6-00-6-66-5h6-3-00-0-|
A|-00-6-000-5h6-3-00-6-000-5h6-3-00-6-00-6-66-5h6-3-00-0-|
D|-00-6-000-5h6-3-00-6-000-5h6-3-00-6-00-6-66-5h6-3-00-0-|

Verses (these are one's and two's)
e|---------------------------------------------------------------------|
b|---------------------------------------------------------------------|
g|---------------------------------------------------------------------|
D|-221221221231221221221221231221221221231-001001001310010010010013100-|
A|-221221221231221221221221231221221221231-001001001310010010010013100-|
D|-221221221231221221221221231221221221231-001001001310010010010013100-|
PM *************************************** ***************************

Chorus
e|---------------------------------------------------------------------|
b|---------------------------------------------------------------------|
g|-7----5-------------------------------5----------------6-6666--------|
D|-5----3----5----8-88p7----7-7----3----3----3p1h4-44----4-4444----1h3-|
A|-5----3----5----8-88p7----7-7----3----3----3p1h4-44----4-4444----1h3-|
D|-----------5----8-88p7----7-7----3---------3p1h4-44--------------1h3-|    

Added On December 16th, 2013

SHARE

Comments

blog comments powered by Disqus

ADVERTISEMENT