Washya Tabs

Stooped Side Walk

1 versions

TAB

            -------------------------------------------------------------------------------
        Stooped Side walk - Washya
-------------------------------------------------------------------------------
Tuning: Drop D (EBGDAD)
Intro
E|-------------------------------------|
B|-------------------------------------|
G|-------------------------------------|
D|-------------------------------------|
A|-7-7-7-5--7-7-7-5-5-5-2--2-4-5-4-2-0-|
D|-5-5-5-5--5-5-5-5-5-5-2--2-2-2-2-2-0-|

Verses
E|--------------------------------------------|
B|--------------------------------------------|
G|--------------------------------------------|
D|----------------------------------3-----2-0-|
A|-7777-5-5-555-45454-2-2-222-0---3-----2---0-|
D|-7777-5-5-555-45454-2-2-222-0-3-----2-----0-|

Chorus
E|------------------------------------------------------------------------|
B|------------------------------------------------------------------------|
G|-/3~-3-5-6-5-3-------------------------/7~-7-9-10-9-7-------------------|
D|------------------------------------------------------------------------|
A|---------------5-5-555/8-8-888-0-0-000----------------9-9-999\6-6-666-3-|
D|---------------5-5-555/8-8-888-0-0-000----------------9-9-999\6-6-666-3-|    

Added On December 16th, 2013

SHARE

Comments

blog comments powered by Disqus

ADVERTISEMENT