Washya Tabs

String Me Along

1 versions

TAB

            -----------------------------------------------------------------------------
                      String Me Along - Washya
-----------------------------------------------------------------------------
Tuning: Standard (EBGDAE)
Intro
E|--------------------------------------------------|
B|--------------------------------------------------|
G|--------------------------------------------------|
D|-3333-22-------3-1------3333-22-------2p0-------2-|
A|-3333-22---3------------3333-22---2-------------2-|
E|-1111-00-1---1-----1bp0-1111-00-0---0-----2h3p2-0-|
PM         * * *                  * * *     ***** 

Verses
E|---------------------------------------------------------|
B|---------------------------------------------------------|
G|---------------------------------------------------------|
D|-------------111---333-------------------666---555-------|
A|-111-------3-----3-----1-----666-------5-----5-----6-----|
E|-----3-111---------------1h3-----5-666---------------4h6-|
PM *** * *** * *** * *** * *** *** * *** * *** * *** * *** 

Chorus
E|-----------------------------------------------------------------------|
B|-----------------------------------------------------------------------|
G|-----------------------------------------------------------------------|
D|-----------------------------------------------------------------------|
A|-0h5p3p0h3h5-7-0h5h3-2h3-2-------------3-------------5/8-3-------1h2-2-|
E|-------------5-----------0-0h3h1p0h1h3-1-0h6p5p0h3h5-3/6-1-0h3p0-----0-|    

Added On December 16th, 2013

SHARE

Comments

blog comments powered by Disqus

ADVERTISEMENT