Washya Tabs

Strong Paranoia

1 versions

TAB

            -----------------------------------------------------------------------------
                              Strong Paranoia - Washya
-----------------------------------------------------------------------------
Tuning: Standard (EBGDAE)
Intro
E|---------------------------------------------------------|
B|---------------------------------------------------------|
G|---------------------------------------------------------|
D|---------------------------------------------------------|
A|-77-7-7------5-7-----5-7-77-7-7-----2-4-----2-4-44-4-4-2-|
E|-55-5-5-/5-8-----5-8-----55-5-5-2-5-----2-5-----22-2-2-0-|
PM         * * * * * * * *        * * * * * * * *  

verses
E|-------------------------------------------------------------0---|
B|---------------------------------------------------------------0-|
G|-----------------------------------------------------------2-----|
D|---------------------------------------------------------2-------|
A|-777777777777-444444444444-777777777777-444444444444-2-0---------|
E|-555555555555-222222222222-555555555555-222222222222-0-----------|
PM ************ ************ ************ ************ 

Chorus
E|-------------------------------------------------------------------------|
B|-------------------------------------------------------------------------|
G|-------------------------------------------------------------------------|
D|-------------------------------------------------------------------------|
A|-------3-2---3-2---5-3-----4-2-7-6-4------6-5---6-5---8-6-----7-5-10-9-7-|
E|-0-2-5-----5-----3-----2-5-----5-4-2-/5-8-----8-----6-----5-8-----8--7-5-|
PM * * *     *     *     * *            * *     *     *     * *  

Lead
E|------------------------10h13p10----10h13p10----10h13p10----10h13p12-----|
B|-2b-/5b-/-8b-/11b-13b~~----------13----------13----------12----------10b-|
G|-4b-/7b-/10b-/13b--------------------------------------------------------|
D|-------------------------------------------------------------------------|
A|-------------------------------------------------------------------------|
E|-------------------------------------------------------------------------|

E|-----------------------------------------12h14h15p14p12-------12----------|
B|-10b-------------14----14----14----15b~~----------------15p14----15----12-|
G|-----9h10h12b-12----12----12----12----------------------------------14----|
D|--------------------------------------------------------------------------|
A|--------------------------------------------------------------------------|
E|--------------------------------------------------------------------------|

E|--------------------------------------------8p7---8p7---8p7/------------|
B|-12h14p12h14p12\11h12p11h12p11\9h11p9h11p9\-----9-----9-----/11b-/14b~~-|
G|-------------------------------------------------------------13b-/16b~~-|
D|------------------------------------------------------------------------|
A|------------------------------------------------------------------------|
E|------------------------------------------------------------------------|    

Added On December 16th, 2013

SHARE

Comments

blog comments powered by Disqus

ADVERTISEMENT