Washya Tabs

Sugar

1 versions

TAB

            ------------------------------------------------------------------------------
                          Sugar - Washya
------------------------------------------------------------------------------
Tuning: Standard (EBGDAE)
Intro
E|---------------------------------------|
B|---------------------------------------|
G|---------------------------------------|
D|-55-------3/77777777\66666666----------|
A|-33-55-33-1/55555555\44444444-222222-3-|
E|----33-11---------------------000000-1-|

Verses
E|--------------------------------------------|
B|--------------------------------------------|
G|--------------------------------------------|
D|----6-5-3---3-5-5/7---5---7-5---------------|
A|-22-------5-----3/5-7---7-----7-6-5-5-4-3-2-|
E|-00---------------------------------3-2-1-0-|    

Added On December 16th, 2013

SHARE

Comments

blog comments powered by Disqus

ADVERTISEMENT