Washya Tabs

Suns Eclipse

1 versions

TAB

            -------------------------------------------------------------------------------
                         Sun's Eclipse - Washya
-------------------------------------------------------------------------------
Tuning: Standard (EBGDAE)
Intro
E|--------------------------------------------------------------|
B|--------------------------------------------------------------|
G|--------------------------------------------------------------|
D|---------------3-6-5-3---3--------------------------------5---|
A|-----------------------5---5-4-3---3----------------------3-3-|
E|-0-0-0-0-0-0-0-------------------6---6-5-3--0-0-0-0-0-0-0---1-|x2
PM * * * * * * *                              * * * * * * * 

Verses
E|-----------------------------------|
B|-----------------------------------|
G|-----------------------------------|
D|-2-----2-----5-----5-----7-----7/9-|
A|-0-000-0-000-3-333-3-333-5-555-5/7-|
E|-----------------------------------|
PM   ***   ***   ***   ***   *** 

Chorus
E|-----------------------------------------------------------------|
B|-----------------------------------------------------------------|
G|-----------------------------------------------------------------|
D|-5/7-------------------5--------------------5--------------------|
A|-3/5-------------------3-3----------------6---6-5------5-----5/6-|
E|-----6\5-0-0-0-0-0-0-0---1--0-0-0-0-0-0-0---------333333-333-3/4-|
PM         * * * * * * *      * * * * * * *         *****  ***    

Added On December 16th, 2013

SHARE

Comments

blog comments powered by Disqus

ADVERTISEMENT