Washya Tabs

Surface Attack

1 versions

TAB

            -------------------------------------------------------------------------------
                            Surface Attack - Washya
-------------------------------------------------------------------------------
Tabbed by:
E-mail:

Tuning: Drop B (BF#BEG#C#)
B|------------------------------------------------------------------------|
F#|-----------------------------------------------------------------------|
B|------------------------------------------------------------------------|
E|---------------5-------------------------5----------------------3-------|
G#|-00-1-0-0-5-6-5-6-5-1-0-0--00-1-0-0-5-6-5-6-5-1-0-0--3-2-0-5-6-3-3-2-1-|
C#|-00-1-0-0-5-6---6-5-1-0-0--00-1-0-0-5-6---6-5-1-0-0--3-2-0-5-6---3-2-1-|
PM  XX   X X             X X  XX   X X             X X      X     

Verses
B|----------------------------------------------------------------------------------------------------------|
F#|---------------------------------------------------------------------------------------------------------|
B|--17b-------------17b-------------17b-16h17p16h17p16h17p16-/19h20p19h20p19h20p19\-------------------------|
E|------12h13h14h15-----12h13h14h15-------------------------------------------------------------12h13h15h16-|
G#|---------------------------------------------------------------------------------12h13h14h15-------------|
C#|---------------------------------------------------------------------------------------------------------|

Verses
B|---------------------------------------------------------|
F#|--------------------------------------------------------|
B|---------------------------------------------------------|
E|-----------------------------------------------6-5-3-----|
G#|------1b------1b------1b------1b------3-1-3-1-4-3-1-3-1-|
C#|-00-0-1b-00-0-1b-00-0-1b-00-0-1b-00-0-3-1-3-1-------3-1-|
PM  ** *    ** *    ** *    ** *    ** * 

Chorus
B|---------------------------------------------------------------------------------------------------|
F#|--------------------------------------------------------------------------------------------------|
B|---------------------------------------------------------------------------------------------------|
E|---------------------------------------------------------------------------------------------------|
G#|-5-6-5-1-3/6--6-5-3-1-3-1-0--6-5-6-5-1-3/6--------------5h6p5------------------4-2-1-/6p5h6-6-5\-|
D#|-5-6-5-1-3/6--6-5-3-1-3-1-0--6-5-6-5-1-3/6-0000-00-0000-------6p5-0000-00-0000-4-2-1-/------6-5\-|
************************************

| /   slide up
| \   slide down
| h   hammer-on
| p   pull-off
| ~   vibrato
| +   harmonic
| x   Mute note
| b   Bend
| pb  Pre-bend
| br  Bend release
| pbr Pre-bend release
| brb Bend release bend

************************************    

Added On January 30th, 2015

SHARE

Comments

blog comments powered by Disqus

ADVERTISEMENT