Washya Tabs

Surrender

1 versions

TAB

            -----------------------------------------------------------------------------
                           Grinspoon - Surrender (Six To Midnight Album)
-----------------------------------------------------------------------------
Tuning: Drop D (EBGDAD)
Intro
E|--------------------------------------|
B|--------------------------------------|
G|--------------------------------------|
D|--------------------------------------|
A|------0-0-3-0-0-3-0-0-0--00-3-0-0-3-0-|
D|-12\\-0-0-3-0-0-3-0-0-0--00-3-0-0-3-0-|

Verses
E|--------------------------------------------------------------|
B|--------------------------------------------------------------|
G|--------------------------------------------------------------|
D|--------------------------------------------------------------|
A|--------------------------5p3p0-----5p3p0-3-5p3p0-----5p3p0-5-|
D|-0-0-3-0-0---0-0-3-0-0--0-------0-0-------3-------0-0-------5-|

Chorus
E|---------------------------------------------|
B|---------------------------------------------|
G|---------------------------------------------|
D|-------------------555/777-------------------|
A|-33-0-3-333-1-1111-333/555-55555555/88888888-|
D|-33-0-3-333-1-1111---------55555555/88888888-|    

Added On December 16th, 2013

SHARE

Comments

blog comments powered by Disqus

ADVERTISEMENT