Washya Tabs

Sweet Nothing

1 versions

TAB

            -----------------------------------------------------------------------------
                         Sweet Nothing - Washya
-----------------------------------------------------------------------------
Tuning: Drop D (DADGBE) 
Intro
e|-----1-------1-------0-------0-------1-------1---0------1---0-|
B|---0---0---2---2---0---0---2---0---2---2---0---0------1---2---|
G|--------------------------------------------------------------|
D|-0-------0-------0-------0-------0-------0---------0----------|
A|--------------------------------------------------------------|
D|--------------------------------------------------------------|

Chorus
e|----------------------------------------------------------------|
B|----------------------------------------------------------------|
G|-4-4-4-2-2-2----------------------------------------------------|
D|-4-4-4-2-2-2-3-5---5-7-5---5-5-5-5-8-8-8-8-0-0-0-0-7---7-9-7----|
A|-2-2-2-0-0-0-3---7-------7-5-5-5-5-8-8-8-8-0-0-0-0---9-------9~-|
D|-------------3-------------5-5-5-5-8-8-8-8-0-0-0-0--------------|

Verses
e|-------------------------------------------------------------|
B|-------------------------------------------------------------|
G|-------------------------------------------------------------|
D|-------------------------------------------------------------|
A|-0-0--0-0--0-0--0-0-1-3-0-0--0-0--0-0--0-0-3-7-0-0--0-0------|
D|-0-0--0-0--0-0--0-0-1-3-0-0--0-0--0-0--0-0-3-7-0-0--0-0------|
pm . .  . .  . .  . .     . .  . .  . .  . .     . .  . .    

Added On December 16th, 2013

SHARE

Comments

blog comments powered by Disqus

ADVERTISEMENT