Washya Tabs

Tattooed Girl

1 versions

TAB

            -------------------------------------------------------------------------------
                   Tattooed Girl - Washya
-------------------------------------------------------------------------------
Tuning: Drop D (DADGBE)
Intro
E|---------------------------|
B|---------------------------|
G|---------------------------|
D|---------------------------|
A|-3-6-1-5/6-33-3-6-1-5/6-33-|
D|-3-6-1-5/6-33-3-6-1-5/6-33-|

Verses
E|--------------------------------|
B|--------------------------------|
G|--------------------------------|
D|--------------------------------|
A|-333333-6-5555565-111111-000000-|
D|-333333-6-5555565-111111-000000-|

Chorus
E|-----------------------------------------------------------------------|
B|-----------------------------------------------------------------------|
G|-----------------------------------------------------------------------|
D|-------------------------------------5555555/7777777-------------------|
A|-33333333-66666666-55555555-11111111-3333333/5555555-33333333-00000000-|
D|-33333333-66666666-55555555-11111111-----------------33333333-00000000-|

Solo
E|-----------------------------------------------------------12h13h15p13p12-|
B|---------------------------10---7-10b---10---7-10bp8-12p10----------------|
G|-8b-8p7------8b-8p7h8-8b-8----8-------8----8------------------------------|
D|--------9-9b--------------------------------------------------------------|
A|--------------------------------------------------------------------------|
D|--------------------------------------------------------------------------|

E|-12h15p13p12h15p13p12h15p13p12~~\\-|
B|-----------------------------------|
G|-----------------------------------|
D|-----------------------------------|
A|-----------------------------------|
D|-----------------------------------|    

Added On December 16th, 2013

SHARE

Comments

blog comments powered by Disqus

ADVERTISEMENT