Washya Tabs

Taught A Lesson

1 versions

TAB

            -----------------------------------------------------------------------------
                 Taught A Lesson - Washya
-----------------------------------------------------------------------------
Tuning: Standard (EBGDAE)
Intro (Chorus, Main Riff)
E|---------------------------|
B|---------------------------|
G|---------------------------|
D|---4-7-9---4-7-9---------2-|
A|-2-2-5-7-2-2-5-7-3/5-3/5-0-|
E|-0-------0-------1/3-1/3---|

Verses
E|-------------------------------------|
B|-------------------------------------|
G|-------------------------------------|
D|------5\3---5\3------5\3---5\3-------|
A|-2-22-3\1-2-3\1-2-22-3\1-2-3\1-5-555-|
E|-0-00-----0-----0-00-----0-----3-333-|
PM * **     *     * **     *       ***    

Added On December 16th, 2013

SHARE

Comments

blog comments powered by Disqus

ADVERTISEMENT