Washya Tabs

The 21st Aeroplane

1 versions

TAB

            -----------------------------------------------------------------------------
              The 21st Aeroplane - Washya (LEAD SOLO GUITAR)
-----------------------------------------------------------------------------
Tuning: Standard (EBGDAE)
Start 
E|--------------------------14-------------------------------------------|
B|-/18-14-------------18-14----16p14p13----------15p12----------------17-|
G|--------17-16----16-------------------16----16-------13-------14h15----|
D|--------------17-------------------------17-------------14p12----------|
A|-----------------------------------------------------------------------|
E|-----------------------------------------------------------------------|

E|-18-14----------------------------------------------17p14----17h18-|
B|-------15----------14h15p14----------------14h16p14-------14-------|
G|----------16h17p16----------15p12-------15-------------------------|
D|----------------------------------14h16----------------------------|
A|-------------------------------------------------------------------|
E|-------------------------------------------------------------------|

E|-19-15----------------17-------------------18h20p18p17------------|
B|-------17----17----17----16p14-------17h18-------------18---------|
G|----------16----16-------------14h15----------------------20------|
D|-------------------------------------------------------------19~~-|
A|------------------------------------------------------------------|
E|------------------------------------------------------------------|x3

END    

Added On December 16th, 2013

SHARE

Comments

blog comments powered by Disqus

ADVERTISEMENT