Washya Tabs

The Demon Inside Of Me

1 versions

TAB

            -----------------------------------------------------------------------------
			     The Demon Inside Of Me - Washya
-----------------------------------------------------------------------------
Tabbed by:
Email:

Tuning: Drop C (DAFCGC)
Intro
D|--------------------------|
A|--------------------------|
F|----------4444-6666-------|
C|-7/10-----4444-6666-------|
G|-5/8--9\8-2222-4444-2/3-0-|
C|------9\8-2222-4444-2/3-0-|


Verses
D|-------------------------------------|
A|-------------------------------------|
F|-------------------------------------|
C|-------------------------------------|
G|-0-0-0--0-0--0-0-0-0-0--0-0--0-0-8-3-|
C|-0-0-0--0-0--0-0-0-0-0--0-0--0-0-8-3-|
pm . . .  . .  . . . . .  . .  . . 

Chorus                                     p.h.
D|------------------------------------------------------------|
A|------------------------------------------------------------|
F|-9-9-7-7-5-5-8-1-2-2-12-12-------------------------------|
C|-9-9-7-7-5-5-8-1-2-0-12-12-12-9-9-9-9-8---------------------|
G|-7-7-5-5-3-3-6-3-4-0-10-10-12-9-9-9-9-8---------------------|
C|-7-7-5-5-3-3-6-3-4-0-10-10-12-9-9-9-9-8---------------------|

Guitar solo
D|--------------------------------------------------------|
A|-15br-13----12-13-15b-13--------------------------------|
F|---------12--------------12-10----------10----------10b-|
C|----------------------------10----------10----------10b-|
G|-------------------------------12-10-12----12-10-12-----|
C|--------------------------------------------------------|

D|--------------------------------------10h15p10h12p10----|
A|-------11-----------------12-13b---------------------12-|
F|-11-12----12-11----15b-13--------11~--------------------|
C|----------------12--------------------------------------|
G|--------------------------------------------------------|
C|--------------------------------------------------------|

D|-10h15p10h12p10----10h15p10h12p10----15b-12-15b-12-15-----------------|
A|----------------12----------------12------------------12--------------|
F|---------------------------------------------------------15-12-10-----|
C|----------------------------------------------------------------------|
G|----------------------------------------------------------------------|
C|----------------------------------------------------------------------|

D|--------------|
A|--------------|
F|--------------|
C|-12-10-12~----|
G|--------------|
C|--------------|    

Added On December 16th, 2013

SHARE

Comments

blog comments powered by Disqus

ADVERTISEMENT