Washya Tabs

The Killing Time

1 versions

TAB

            -------------------------------------------------------------------------------
                             The Killing Time - Washya
-------------------------------------------------------------------------------
Tabbed by:
E-mail:

Tuning: Drop B (BF#BEG#C#)
Intro
B|-----------------------------------------------------|
F#|----------------------------------------------------|
B|-----------------------------------------------------|
E|-----------------------------------------------------|
G#|--------------------------------------------------00|
C#|-1111-0-1b-0-1b-0-1111-0-1b-0-1b-0-1111-0-1b-0-1b-00|x3

Part 2
B|------------------------------------------------------|
F#|-----------------------------------------------------|
B|------------------------------------------------------|
E|------------------------------------------------------|
G#|-1111-0-2p1-0-4p3-0----0-1111-0-2p1-0-4p3------0-1111|
C#|-1111-0-2p1-0-4p3-0-1b-0-1111-0-2p1-0-4p3-0-1b-0-1111|

Verses
B|-------------------------------------------------------------|
F#|------------------------------------------------------------|
B|-------------------------------------------------------------|
E|-------------------------------------------------------------|
G#|----------------------3--------------------4-3~-------------|
C#|-1~-0-/6-5~-0-1-1-6-1---/6-5~-2-1~-0-/4-3~------/6-1-1-/6-5~|

Chorus
B|---------------------------------------------------------------------------------------|
F#|--------------------------------------------------------------------------------------|
B|--------77777/10-10-10-10\9999\777/8888\7777-------33333/6666\5555/8888\7777\5555------|
E|---------------------------------------------------------------------------------------|
G#|-5-666-55555/8--8--8--8-\7777\555/6666\5555-3-2-0-11111/4444\3333/6666\5555\3333-1-1-1|
C#|-5-666--------------------------------------3-2-0--------------------------------1-1-1|


************************************

| /   slide up
| \   slide down
| h   hammer-on
| p   pull-off
| ~   vibrato
| +   harmonic
| x   Mute note
| b   Bend
| pb  Pre-bend
| br  Bend release
| pbr Pre-bend release
| brb Bend release bend

************************************    

Added On January 9th, 2015

SHARE

Comments

blog comments powered by Disqus

ADVERTISEMENT