Washya Tabs

The Way We Were

1 versions

TAB

            ------------------------------------------------------------------------------
               The Way We Were - Washya
------------------------------------------------------------------------------
Tuning: Standard (EBGDAE)
Intro/Chorus
E|---------------------------------------------------|
B|---------------------------------------------------|
G|---------------------------------------------------|
D|-2-----3-----1-----2--2---6-5----------5-4---------|
A|-2---3-----1-----2----2-7-------5-4-/6-------4-3-3-|
E|-0-5-----3-----0------0-------7------------5-----1-|

Verses
E|-3-3-3---------0-0-0-----------3-3-3-----------------------|
B|-3-3---3-------0-0---3---------3-3---3---------------------|
G|-0-0-----------0-0-----0-------5-5-------5-----------------|
D|-0-0-----0-----2-2---------2---5-5-----------5-5/7\5-------|
A|-2-2---------2-2-2-----------2-3-3---------3---3/5\3-7-5-5-|
E|-3-3-------3---0-0-------0-----0-0-----0-------------5-3-3-|    

Added On December 16th, 2013

SHARE

Comments

blog comments powered by Disqus

ADVERTISEMENT