Washya Tabs

Thilden

1 versions

TAB

            -----------------------------------------------------------------------------
                          Thilden - Washya
-----------------------------------------------------------------------------
Tuning: Standard 
Intro
E|-----------------------------------------------------------|
B|---------3-----------------------------------------------2-|
G|-----5-------------------------------------------------3---|
D|---4---4-----4---5-4-2---2---2---------------------3-5-----|
A|-2---------2---2-------4---4-------3---1---------3---------|
E|-------------------------------5-5---3---4-1-3-1-----------|

Verses
E|-----2-------2-------2-------2-------3-------3-------2-----2-|
B|---3---3---3---3---3---3---3---3---4---4---4---4---4---3---3-|
G|-2-------2-------2-------2-------5-------5-------5-------2-2-|
D|-------------------------------------------------------------|
A|-------------------------------------------------------------|
E|-------------------------------------------------------------|

Chorus
E|----------------------------------------------------------------|
B|----------------------------------------------------------------|
G|----------------------------------------------------------------|
D|-------------------------55555555/77777777----------------------|
A|-55-77-22-33-55-77-22-33-33333333/55555555-22-77-55-44-22-33-55-|
E|-33-55-00-11-33-55-00-11-------------------00-55-33-22-00-11-33-|    

Added On December 16th, 2013

SHARE

Comments

blog comments powered by Disqus

ADVERTISEMENT