Washya Tabs

Think Fast Be Alive

1 versions

TAB

            -----------------------------------------------------------------------------
                       Think Fast, Be Alive - Washya
-----------------------------------------------------------------------------
Tuning: Drop C (DAFCGC)
Intro
D|-----------------------------------------------------------|
A|-----------------------------------------------------------|
F|-----------------------------------------------------------|
C|-----------------------------------------------------------|
G|-----------------------------------------------------------|
C|-3222223222223222232/6555556555555565555565555\32222232222-|
PM *********************************************************

Main Riff/Chorus (Cool Riff)
D|---------------------------------------------------------|
A|---------------------------------------------------------|
F|---------------------------------------------------------|
C|---5h6-----5h6-----5h6---------2h3-----2h3-----2h3-------|
G|-------6-------3-------6-333-------3-------0-------3-111-|
C|-0-------0-------0-----6-333-0-------0-------0-----3-111-|
PM *       *       *           *       *       *       

Verses
D|-------------------------------------------------------------------------|
A|-------------------------------------------------------------------------|
F|-------------------------------------------------------------------------|
C|----3p2p0-------3p2p0-------3p2p0----------------------------------------|
G|----------2-222-------3-333-------3p2p0-1111111/33333333-------3p2p0-1-0-|
C|-00-------2-222-------3-333-------------1111111/33333333-0h3p0-------1-0-|
PM **         ***         ***    

Added On December 16th, 2013

SHARE

Comments

blog comments powered by Disqus

ADVERTISEMENT