Washya Tabs

This Great Land

1 versions

TAB

            -------------------------------------------------------------------------------
                         This Great Land - Washya
-------------------------------------------------------------------------------
Tuning: Standard (EBGDAE)
Intro
E|-----------------------------------------------------|
B|-----------------------------------------------------|
G|-----------------------------------------------------|
D|-----------------------------------------------------|
A|-222-222-222-222-222-222-222-222-222-222-222-222-222-|
E|-000-000-000-000-000-000-000-000-000-000-000-000-000-|x4

Main Riff/Chorus
E|---------------------------------------------------------|
B|---------------------------------------------------------|
G|---------------------------------------------------------|
D|---------------7/8---------------7/8---------------------|
A|-2-22-4/5-2-22-5/6-2-22-4/5-2-22-5/6-2-22-9/10---5/7---3-|
E|-0-00-2/3-0-00-----0-00-2/3-0-00-----0-00-7/8--0-3/5-0-1-|
PM * **     * **     * **     * **     * **      *     * 

Verses
E|---0-------------------------------------3---3-|
B|-----3-------1-----------------1p0---------3---|
G|-------2---------------------------2-----------|
D|---------------2-------------3-------2---------|
A|-2---------2-----3-5-4-3---3-------------------|
E|---------0---------3-2-1-1-------------0-------|    

Added On December 16th, 2013

SHARE

Comments

blog comments powered by Disqus

ADVERTISEMENT