Washya Tabs

This Is The End

1 versions

TAB

            -------------------------------------------------------------------------------
                  This Is The End - Washya
-------------------------------------------------------------------------------
Tuning: Standard (EBGDAE)
Intro/Verses
E|-------------------------------------------------------------------|
B|-------------------------------------------------------------------|
G|-----6-----6---6-----6----------7------4-----4---4-------4---------|
D|---7-----7-------7-----7------6------5-----5-------5-------5-55-55-|
A|-5-----5-----5-----5-----5--5----/-3-----3-----3-----3-3-----33-33-|
E|-------------------------------------------------------------------|

Chorus
E|--------------------------------------------|
B|--------------------------------------------|
G|--------------------------------------------|
D|-7-77-5-55-7-77/10-1010----------------2-22-|
A|-5-55-3-33-5-55/8--8-8--7-77-5-55-3-33-0-00-|
E|------------------------5-55-3-33-1-11------|    

Added On December 16th, 2013

SHARE

Comments

blog comments powered by Disqus

ADVERTISEMENT