Washya Tabs

This Life

1 versions

TAB

            Washya - This life 
Intro 
B|------------------------|
F#|-----------------------|
B|------------------------|
E|------------------------|
G#|-----------------------|
C|-2p11-2p11-2p11-2p1-2p1-|x3

intro 2
B|-------------------------|    |---------|
F#|------------------------|    |---------|
B|-------------------------|    |---------|
E|-------------------------|    |---------|
G#|-1----1----1----1---1---|    |-8-7-3\\-|
C|--1-00-1-00-1-00-1-0-1-0-|x8  |-8-7-3\\-|
PM    XX   XX   XX   X   

Verses
B|-------------------------------------------------------|   |--------|
F#|------------------------------------------------------|   |--------|
B|-----------------------8*---------------------------8*-|   |--------|
E|------8---8-------7----------7-----4---------8*--------|   |--------|
G#|---7-------7------------------8-----8\7---------------|   |--6-5-1-|
C|--8-----8-----8\7----7----/4-----4-------4h5----4h5----|x5 |-/6-5-1-|
PM  XX    X     X      X     X   X X       XXX    XXX  

Chorus
B|-------------------------------------------------------------------------------------------|
F#|------------------------------------------------------------------------------------------|
B|-------------------------------------------------------------------------------------------|
E|-------------------3333333/----------------------------------------------------------------|
G#|--5555555-2222222-1111111/4444444------------------1h2*---1h2*----6p5--------3333333-22-0-|
C|--/5555555-2222222---------4444444-444422221111-x-0-1----0h1----/5-----5h6p3*-3333333-22-0-|    

Added On September 27th, 2014

SHARE

Comments

blog comments powered by Disqus

ADVERTISEMENT