Washya Tabs

This Summer Night

1 versions

TAB

            -----------------------------------------------------------------------------
         This Summer Night - Washya
-----------------------------------------------------------------------------
Tuning: Standard (EBGDAE)
Intro
E|---8-7-5-----8-7-5-------6-5-3-----6-5-3---3-1-|
B|---------7---------7-----------5---------5-4-2-|
G|-5-------7-5-------7-5\3-------5-3-------5-5-3-|
D|-------------------------------------------5-3-|
A|-----------------------------------------------|
E|-----------------------------------------------|

Verses
E|---------------------------------------------------------------------|
B|-2-22-------------2-22-----------------------------------------------|
G|-2-22-0h2p0-------2-22-0h2p0-------5-55-------------5-55-------------|
D|-2-22-------3p2p0-2-22-------3p2p0-5-55-3h5p3-------5-55-3h5p3-------|
A|-----------------------------------3-33-------6p5p3-3-33-------6p5p3-|
E|---------------------------------------------------------------------|

Chorus
E|-2-22-----------------------2-------0-----------------------------|
B|-3-33-2-22-------------2-22-3-3-------3---2-22--------------------|
G|-2-22-2-22-0h2p0-------2-22-2---2-------2-2-22-0h2p0-------5555---|
D|------2-22-------3p2p0-2-22-------0-------2-22-------3p2p0-5555-2-|
A|-----------------------------------------------------------3333-2-|
E|----------------------------------------------------------------0-|    

Added On December 16th, 2013

SHARE

Comments

blog comments powered by Disqus

ADVERTISEMENT