Washya Tabs

Tombstone

1 versions

TAB

            -----------------------------------------------------------------------------
			     Tombstone - Washya
-----------------------------------------------------------------------------
Tabbed by:
Email:

Tuning: Drop D
Intro
e|-------------------------------------|
B|-------------------------------------|
G|-------------------------------------|
D|-----6-5-3---------------3-----3-----|
A|---------------6-5-3-------5-6-------|
D|-000-------000-------000---------6-5-|
pm ...       ...       ...  

Verses 
e|-------------------------------------|
B|-------------------------------------|
G|-------------------------------------|
D|---------------3-2-------------3p2p0-|
A|-----1-0-3---------2-----3p2p0-------|
D|-000-----3-000-----2-000-------------|
pm ...       ...       ... 


Chorus
e|-------------------------------------------------------------------------|
B|-------------------------------------------------------------------------|
G|-------------------------------------------------------------------------|
D|--------------------3-------------------5--------------------2-3---------|
A|-4-44444-44-2-4-6-5---6-------------8-7---8--------------0-1-----3-------|
D|-4-44444-44-2-4---------5-5555-5555---------7-555-55-0-3-----------2-1-0-|
pm . ..... .. . .           .... ....           ... .. 

Guitar Solo
e|-------------------13----13-12-15-14b-14-16-14-13-------15-14-12-----|
B|-12----12-14-15-12----12--------------------------14-16--------------|
G|----13---------------------------------------------------------------|
D|---------------------------------------------------------------------|
A|---------------------------------------------------------------------|
D|---------------------------------------------------------------------|


e|--------13-12-13-12-13-16-------13----14----15-16-17b-------------12-13--|
B|--13-16-------------------14-12----12----12-----------16-14----13--------|
G|------------------------------------------------------------12-----------|
D|-------------------------------------------------------------------------|
A|-------------------------------------------------------------------------|
D|-------------------------------------------------------------------------|

e|-13p12h16t19p16p12p12h13hh16t19-/22b-22b-21-22-21----21-22-19-20-17-18--|
B|--------------------------------------------------22--------------------|
G|------------------------------------------------------------------------|
D|------------------------------------------------------------------------|
A|------------------------------------------------------------------------|
D|------------------------------------------------------------------------|



e|-16-17-15-16----16-------------10h13p10h15p10h13p10h15-17b-18b-22-21-22~-|
B|-------------14----14-12----12-------------------------------------------|
G|-------------------------10----------------------------------------------|
D|-------------------------------------------------------------------------|
A|-------------------------------------------------------------------------|
D|-------------------------------------------------------------------------|    

Added On December 16th, 2013

SHARE

Comments

blog comments powered by Disqus

ADVERTISEMENT