Washya Tabs

Tone Deaf

1 versions

TAB

            -----------------------------------------------------------------------------
                   Tone Deaf - Washya
-----------------------------------------------------------------------------
Tuning: Standard (EBGDAE)
Intro
E|-----------------------------|
B|-----------------------------|
G|-----------------------------|
D|---4-2---2---2---2-----------|
A|-2-----4-------4---------3/5-|
E|-----------4-------3-2-0-1/3-|
PM                   * * * 

Verses (Heavy Palm Mute)
E|--------------------------------------------------------------------|
B|--------------------------------------------------------------------|
G|--------------------------------------------------------------------|
D|-------------------------4b---------------------------6---4-----4b--|
A|-2-2-2-2-2-2-2-2-2-2-2-2----2-2-2-2-2-2-2-2-2-2-2-2-4---4---4h6-----|
E|-0-0-0-0-0-0-0-0-0-0-0-0----0-0-0-0-0-0-0-0-0-0-0-0-----------------|
PM * * * * * * * * * * * *    * * * * * * * * * * * * 

Chorus        (Heavy Palm Mute)
E|---------------------------------------|
B|---------------------------------------|
G|---------------------------------------|
D|-----8\7-----8\7-----------------------|
A|-5/7-6\5-5/7-6\5-3-3/5-2-2-2-2-2-2-2-2-|
E|-3/5-----3/5-----1-1/3-0-0-0-0-0-0-0-0-|
PM                       * * * * * * * *    

Added On December 16th, 2013

SHARE

Comments

blog comments powered by Disqus

ADVERTISEMENT