Washya Tabs

Uprising

1 versions

TAB

            -------------------------------------------------------------------------------
                             SONG NAME - Band Name
-------------------------------------------------------------------------------
Tabbed by:
E-mail:

Tuning: Drop B (BF#BEG#C#)
Intro (guitar 1)
B|-------------------------------------------|
F#|------------------------------------------|
B|-------------------------------------------|
E|-------------------------------------------|
G#|-0-3-2-0-5--0-3-2-0-5--0-3-2-0-5-0-6-0-8-0|
C#|-0-3-2-0-5--0-3-2-0-5--0-3-2-0-5-0-6-0-8-0|x4
PM  X X X X    X X X X    X X X X   X   X   X

Intro (guitar 2)
B|---------------------------------------------------|
F#|--------------------------------------------------|
B|---------------------------------------------------|
E|---------------------------------------------------|
G#|-------3-2-------3-------3-2-------3-2---------3-2|
C#|-0-1-0-----0-1-0---3-1-0-----0-1-0-----2-0-1-0----|
PM  X X X     X X X   X X X     X X X     X X X X 

Part 2 (both guitars) Unmuted
B|---------------------------------------------------|
F#|--------------------------------------------------|
B|---------------------------------------------------|
E|--------5-4-------5-------5-4-------5-4---------5-4|
G#|-0-1-0-3-2-0-1-0-3-3-1-0-3-2-0-1-0-3-2-2-0-1-0-3-2|
C#|-0-1-0-----0-1-0---3-1-0-----0-1-0-----2-0-1-0----|

Verses 
B|--------------------------------------------------------------------------------|
F#|-------------------------------------------------------------------------------|
B|--------------------------------------------------------------------------------|
E|--------------------------------------------------------------------------------|
G#|-------------------------------------------------------------------------------|
C#|-1-00-1-0-0-00-1-00-1-0-0-00-1-/6--1-00-1-0-0-00-1-00-3-0-0-00-3-0-4-00-1-0-/6~|

Chorus
B|------------------------------------------------------------------------------|
F#|-----------------------------------------------------------------------------|
B|------------------------------------------------------------------------------|
E|------------------------------------------------------------7h8p7-------------|
G#|-4-3-1-/6-5-3/88888-7-6-4--4-3-1/6-5-3-0-3-1-0-6-4-3/88888-------10p8p7-7-5-4|
C#|-4-3-1-/6-5-3/88888-7-6-4--4-3-1/6-5-3-0-3-1-0-6-4-3/88888--------------7-5-4|


************************************

| /   slide up
| \   slide down
| h   hammer-on
| p   pull-off
| ~   vibrato
| +   harmonic
| x   Mute note
| b   Bend
| pb  Pre-bend
| br  Bend release
| pbr Pre-bend release
| brb Bend release bend

************************************    

Added On January 14th, 2015

SHARE

Comments

blog comments powered by Disqus

ADVERTISEMENT