Washya Tabs

Urge Too Kill

1 versions

TAB

            -------------------------------------------------------------------------------
                             Urge Too Kill - Washya
-------------------------------------------------------------------------------
Tabbed by:
E-mail:

Tuning: Drop B (BF#BEG#C#)

B|------------------------------------------------|
F#|-----------------------------------------------|
B|------------------------------------------------|
E|--------0-/6-5/8---------/8-7-5---------5-----6-|
G#|---5/6----------------5--------6---5/6---6\5---|
C#|-0--------------0-5/6------------0-------------|x4

Part 2
B|------------------------------------------|
F#|-----------------------------------------|
B|------7-7----5-5----3-3-------------------|
E|------7-7----5-5----3-3-------------------|
G#|---0-5-5--0-3-3--0-1-1-------------------|
C#|-/-0-----/0-----/0-----x-0-1-4-1-0-3-1-0-|
PM                          * * * * * * * *

Verses
B|----------------------------------------------| |---------------------|
F#|---------------------------------------------| |---------------------|
B|----------------------------------------------| |-3333/6666/10101010\-|
E|----------------------------------------------| |---------------------|
G#|-111-111-1-333-333-3-0-1-3-4-3-1-4-3-1-0-1-0-| |-1111/4444/8-8-8-8\\-|
C#|-111-111-1-333-333-3-0-1-3-4-3-1-4-3-1-0-1-0-| |---------------------|last time

Chorus
B|------------------------------------------------------------|
F#|-----------------------------------------------------------|
B|------------------------------55555/88888-------------------|
E|------------------------------------------------------------|
G#|-/6p5-----6-/8p7-----8-6p5p3-33333/66666-6h8p6-5--56865653-|
C#|------3-5--------5-7---------------------6h8p6-5-/56865653-|

Interlude
B|--------------------------------------------------------------------------------|
F#|-------------------------------------------------------------------------------|
B|--------------------------------------------------------------------------------|
E|--------------------------------------------------------------------------------|
G#|-0000-1-0000-1-0000-1-0000-1-000011114444433331111-----------88887777----------|
C#|-0000-1-0000-1-0000-1-0000-1-000011114444433331111-/88887777----------5555-7---|

************************************

| /   slide up
| \   slide down
| h   hammer-on
| p   pull-off
| ~   vibrato
| +   harmonic
| x   Mute note
| b   Bend
| pb  Pre-bend
| br  Bend release
| pbr Pre-bend release
| brb Bend release bend

************************************    

Added On December 2nd, 2014

SHARE

Comments

blog comments powered by Disqus

ADVERTISEMENT