Washya Tabs

Verile

1 versions

TAB

            -------------------------------------------------------------------------------
                             Verile - Washya
-------------------------------------------------------------------------------
Tabbed by:
E-mail:

Tuning: Drop B

B|------------------------------------------------------------------------|
F#|-----------------------------------------------------------------------|
B|------------------------------------------------------------------------|
E|------------------------------------------------------------------------|
G#|-------5-4-------------------5-4-------------------5-4-----------------|
C#|-0-5-6-----5-6-000-000-0-5-6-----5-6-000-000-0-5-6-----5-6-5-3-000-000-|x6
PM  *             *** ***               *** ***                   *** *** 

Intro 2/Chorus
B|------------------------------------------------------------------------|
F#|-----------------------------------------------------------------------|
B|------------------------------------------------------------------------|
E|--------7-6-------------------7-6-------------------7-6-----------------|
G#|---5-6-5-4-5-6-----------5-6-5-4-5-6-----------5-6-5-4-5-6-5-3---------|
C#|-0-5-6-----5-6-000-000-0-5-6-----5-6-000-000-0-5-6-----5-6-5-3-000-000-|x6
PM  *             *** ***               *** ***                   *** *** 

Verses
B|-----------------------------------------------------------------------------|
F#|----------------------------------------------------------------------------|
B|----------------------------------------------------------5555/8888\3333-----|
E|-------------------------------------------------------------------------1-1-|
G#|---------4-3-2---------3-2---1---1-----------------------3333/6666\1111-1-1-|
C#|-0-1-4-1-------0-4-1-4-----0---4---4-1-4-0-6-0-5-0-1-4-1----------------1-1-|






************************************

| /   slide up
| \   slide down
| h   hammer-on
| p   pull-off
| ~   vibrato
| +   harmonic
| x   Mute note
| b   Bend
| pb  Pre-bend
| br  Bend release
| pbr Pre-bend release
| brb Bend release bend

************************************    

Added On November 12th, 2014

SHARE

Comments

blog comments powered by Disqus

ADVERTISEMENT