Washya Tabs

Visceral Hypersensitivity

1 versions

TAB

            -------------------------------------------------------------------------------
                             Visceral Hypersensitivity - Washya
-------------------------------------------------------------------------------
Tabbed by:
E-mail:

Tuning: Drop B (BF#BEG#C#)
Intro
B|------------------------------------------------------------------------|
F#|-----------------------------------------------------------------------|
B|-------------7777\6-66\10\--------------10-10-10\9\12-12-12\------------|
E|------------------------------------------------------------------------|
G#|-5-4-3-1-3-/5555\4-44\8\-3-2-1-0-3-1-0-8--8--8-\7\10-10-10\-1-0-1-4-3-1|
C#|-5-4-3-1-3---------------3-2-1-0-3-1-0----------------------1-0-1-4-3-1|
PM  X X X X X               X X X X X X X                      X X X X X X 

Verses
B|-----------------------------------------------------------------------------------------------------|
F#|----------------------------------------------------------------------------------------------------|
B|-----------------------------------------------------------------------------------------------------|
E|-----------------------------------------------------------------------------------------------5h6-6~|
G#|----------------------------------------------------------------------------------------1-0-1-------|
C#|-1-00-3h44-000-0-0-000-0-0-000-00-000-00-000-0-0-2p1-1-4h55-000-00-000-00-000-00-000-00-1-0-1-------|

Chorus
B|-------------------------------------------------------------------------------------|
F#|------------------------------------------------------------------------------------|
B|--7-7-7-7--5-5-5-------------------------------------------------------5/8-----------|
E|--7-7-7-7--5-5-5-6-1-3------656--------0-1-4-2-3-1---------------------5/8-6-5-3---2*|
G#|-5-5-5-5--3-3-3-6-1-3------656--------0-1-4-2-3-1-3333-2222------3333-3/6-6-5-3-1---|
C#|----------------6-1-3-3333-656-6-5-3~-0-1-4-2-3-1-----------2222----------6-5-3-----|
PM                       XXXX     X X                XXXX XXXX XXXX XXXX 


************************************

| /   slide up
| \   slide down
| h   hammer-on
| p   pull-off
| ~   vibrato
| +   harmonic
| x   Mute note
| b   Bend
| pb  Pre-bend
| br  Bend release
| pbr Pre-bend release
| brb Bend release bend

************************************    

Added On January 11th, 2015

SHARE

Comments

blog comments powered by Disqus

ADVERTISEMENT