Washya Tabs

Welcome Home

1 versions

TAB

            -------------------------------------------------------------------------------
                             Welcome Home - Washya
-------------------------------------------------------------------------------
Tabbed by:
E-mail:

Tuning: Drop A (AEADF#B)
Intro
B|---------------------------------------------|
F#|--------------------------------------------|
D|---------------------------------------------|
A|---------------------------------------------|
E|---------------------------------------------|
A|-1111-111-1-11--1111-111-1-11--1111-111-1-11-|x2
PM **** *** * **  **** *** * **  **** *** * ** 

Part 2
B|----------------------------------------------|
F#|---------------------------------------------|
D|----------------------------------------------|
A|----------------------------------------------|
E|---11------11------11------11------11------11-|
A|-0-11-0--0-11-0--0-11-0--0-11-0--0-11-0--0-11-|
     ^ ones

Verses
B|--------------------------------------------------------------------------------------|
F#|-------------------------------------------------------------------------------------|
D|--------------------------------------------------------------------------------------|
A|--------------------------------------------------------------------------------------|
E|-0-2-1-0--0-2-1-0--0-2-1-0--0000-1-----0-2-1-0------0-2-1-0------0-1-0-3-2-1--0-2-1-0-|
A|-0-2-1-0--0-2-1-0--0-2-1-0--0000-1111--0-2-1-0-1111-0-2-1-0-1111-0-1-0-3-2-1--0-2-1-0-|
PM                                  ***          ****         ****       

Chorus
B|---------------------------------------------------------------------------------------|
F#|--------------------------------------------------------------------------------------|
D|---------------------------------------------------------------------------------------|
A|------5\4-----------3---5---------3/6--------------555\3---------8\7-------555\4-------|
E|-1111-3\2-6\5-2-3-1-1-3-3-5-6-1-3-1/4-4-/8-7-3-4-5-333\1-4-3-0-1-6\5-6-5-3-333\2-1-2-3-|
A|-1111-----6\5-2-3-1---3---5-6-1-3-----4-/8-7-3-4-5-------4-3-0-1-----6-5-3-------1-2-3-|

Interlude
B|-------------------------------------------------------------------------------|
F#|------------------------------------------------------------------------------|
D|-------------------------------------------------------------------------------|
A|----------------6-5-----------2------------------7-6-4-6-----------------------|
E|-1111-------6-5-----6-5-3-2-3---3-2-2-1-0--5-4-3-5-4-2-4-------3-2-0-2-/8-7-6\-|
A|-1111-0-3-2---------6-5-3-----------2-1-0-/5-4-3---------0-2-4-------2-/8-7-6\-|

************************************

| /   slide up
| \   slide down
| h   hammer-on
| p   pull-off
| ~   vibrato
| +   harmonic
| x   Mute note
| b   Bend
| pb  Pre-bend
| br  Bend release
| pbr Pre-bend release
| brb Bend release bend

************************************    

Added On January 28th, 2015

SHARE

Comments

blog comments powered by Disqus

ADVERTISEMENT