Washya Tabs

Where To Run

1 versions

TAB

            -------------------------------------------------------------------------------
                Where To Run - Washya
-------------------------------------------------------------------------------
Tuning: Standard (ebgDAE)
Intro
e|-------------------------------|
b|-------------------------------|
g|-------------------------------|
D|-----------------------------2-|
A|-----2-1-----2-1---1-----1-3---|
E|-0-3-----1-3-----3---1-3-------|
PM * * * * * * * * * * * * * *  

Verses
e|---------------------------|
b|---------------------------|
g|---------------------------|
D|---------------------------|
A|------------------------1--|
E|-0-1b-0-1b-0-1b-0-1-123----|

Chorus
e|-------------------------------------------------------------------------|
b|-------------------------------------------------------------------------|
g|-------------------------------------------------------------------------|
D|-----------------------------------555555555555-7777777777---------------|
A|-3333333333333333-5555555555555555-333333333333-5555555555-777777-4444-22|
E|-1111111111111111-3333333333333333-------------------------555555-2222-00|    

Added On December 16th, 2013

SHARE

Comments

blog comments powered by Disqus

ADVERTISEMENT