Washya Tabs

Whos Gunna Ride The Sun

1 versions

TAB

            -------------------------------------------------------------------------------
                     Who's Gunna Ride The Sun? - Washya
-------------------------------------------------------------------------------
Tuning: Drop C (DAFCGC)
Intro
D|----------------------------------------------|
A|----------------------------------------------|
F|----------------------------------------------|
C|-2/9-00-2/9-00-1/8-00-1/8-00-00-0-11111-0-1p0-|
G|-2/9-00-2/9-00-1/8-00-1/8-00-00-0-11111-0-1p0-|
C|-2/9-00-2/9-00-1/8-00-1/8-00-00-0-11111-0-1p0-|
pm     ..     ..     ..     .. .. .       . 

Verses       
D|--------------------------------------------------------|
A|--------------12!-10!-----------------------------------|
F|----------------------8!-10!----------------------------|
C|-xxx-x-xx-xxx----------------00-3p2-0-3p2-0-2h3p2p0h2p0-|
G|-xxx-x-xx-xxx----------------00-3p2-0-3p2-0-2h3p2p0h2p0-|
C|-xxx-x-xx-xxx----------------00-3p2-0-3p2-0-2h3p2p0h2p0-|
pm                             ..     .     .            

Chorus
D|-------------------------------------------------------------------|
A|-------------------------------------------------------------------|
F|-----------------------------2~--------------5~--------------------|
C|---0-0-0--00-0-0-0-0h2p1p0h1----0h2p1-0-55p4----3p2-0-0-0-00-0-0-0-|
G|---0-0-0--00-0-0-0-0h2p1p0h1----0h2p1-0-55p4----3p2-0-0-0-00-0-0-0-|
C|-/-0-0-0--00-0-0-0-0h2p1p0h1----0h2p1-0-55p4----3p2-0-0-0-00-0-0-0-|
pm   . . .  .. . . .                                  . . . .. . . .    

Added On December 16th, 2013

SHARE

Comments

blog comments powered by Disqus

ADVERTISEMENT