Washya Tabs

Wishmaster

1 versions

TAB

            -------------------------------------------------------------------------------
                             Wishmaster - Washya
-------------------------------------------------------------------------------
Tabbed by:
E-mail:

Tuning: Drop C (DAFCGC)
intro (slow)
F|-------16-15-----------------16-15-----------------16-15--------------------|
A|-12-13-----------------12-13-----------------12-13--------------------------|
D|-------------555-------------------777--------------------------------------|
C|-------------555-333/4-------------777-555/6-------------2----3----7\6-444/5|
G|-------------333-333/4-------------555-555/6-------------2----3----7\6-444/5|
C|-----------------333/4-----------------555/6-------------2-xx-3-xx-7\6-444/5|

F|--------------------------17-16---------------------------------------|
A|--------------------12-13---------------------------------------------|
D|-9999\555--------------------------------------5555-12-12-12-12\77/99-|
C|----------1111-0000-------------2----3----5----5555-------------------|
G|-7777\333-1111-0000-------------2----3----5----3333-10-10-10-10\55/77-|
C|----------1111-0000-------------2-xx-3-xx-5-xx------------------------|

Verses
F|----------------------------------------------------------------------------|
A|----------------------------------------------------------------------------|
D|-------------------5555\333-------------------7777\555----------------------|
C|-1-111/2-222/5-555----------3-333/4-444/7-777----------5-555/6-666/8-888-7\-|
G|-1-111/2-222/5-555-3333/111-3-333/4-444/7-777-5555\333-5-555/6-666/8-888-7\-|
C|-1-111/2-222/5-555----------3-333/4-444/7-777----------5-555/6-666/8-888-7\-|
PM   XXX   XXX   XXX            XXX   XXX   XXX            XXX   XXX   XXX

Chorus
F|--------------------------------------------------------------------------|
A|--------------------------------------------------------------------------|
D|--------------------------------------------------------------------------|
C|-1-0-6-5-00-000-12-11-0-16-15-13-00-000-1-0-8-7-00-000-12-11-0-7-6-0-4-3-0|
G|-1-0-6-5-00-000-12-11-0-16-15-13-00-000-1-0-8-7-00-000-12-11-0-7-6-0-4-3-0|
C|-1-0-6-5-00-000-12-11-0-16-15-13-00-000-1-0-8-7-00-000-12-11-0-7-6-0-4-3-0|
PM   X     XX XXX       X          XX XXX   X     XX XXX       X     X     X

interlude
F|---------------------------------------------------|
A|---------------------------------------------------|
D|---------------------------------------------------|
C|---------------------------------------------------|
G|-----5/6-------------8\7---------------------------|
C|-0-1-----0-1-5/6-0-1-----0-1-8\7-0-1-1-3-4-1-1-3-6-|

F|----------------------------------------------------|
A|----------------------------------------------------|
D|-----7/8-------------10\9---------------------------|
C|-0-1-7/8-0-1-5/6-0-1-10\9-0-1-8\7-0-1-1-3-4-1-1-3-6-|
G|-0-1-5/6-0-1-5/6-0-1-8-\7-0-1-8\7-0-1-1-3-4-1-1-3-6-|
C|-0-1-----0-1-5/6-0-1------0-1-8\7-0-1-1-3-4-1-1-3-6-|

Chorus
F|--------------------------------------------------------------------------|
A|--------------------------------------------------------------------------|
D|--------------------------------------------------------------------------|
C|-1-0-6-5-00-000-12-11-0-16-15-13-00-000-1-0-8-7-00-000-12-11-0-7-6-0-4-3-0|
G|-1-0-6-5-00-000-12-11-0-16-15-13-00-000-1-0-8-7-00-000-12-11-0-7-6-0-4-3-0|
C|-1-0-6-5-00-000-12-11-0-16-15-13-00-000-1-0-8-7-00-000-12-11-0-7-6-0-4-3-0|
PM   X     XX XXX       X          XX XXX   X     XX XXX       X     X     X
************************************

| /   slide up
| \   slide down
| h   hammer-on
| p   pull-off
| ~   vibrato
| +   harmonic
| x   Mute note
| b   Bend
| pb  Pre-bend
| br  Bend release
| pbr Pre-bend release
| brb Bend release bend

************************************    

Added On January 28th, 2015

SHARE

Comments

blog comments powered by Disqus

ADVERTISEMENT