Washya Tabs

Yazoo

1 versions

TAB

            -----------------------------------------------------------------------------
                              Yazoo - Washya
-----------------------------------------------------------------------------

Tuning: Standard
Intro
e|--------------------------------|
B|--------------------------------|
G|-2------------------------------|
D|-2---0-1-0-----1-0-----------3~-|
A|-0---------3-0-----3-1-2-3-1----|
E|---0----------------------------|
pm   .

verses
e|-----1-5---------4h6~--8p6h7h8p7p6-4-|
B|---2-----4-----3---------------------|
G|-3---------3-2-----------------------|
D|-------------------------------------|
A|-------------------------------------|
E|-------------------------------------| 

Chorus
e|--------------------------------------------|
B|--------------------------------------------|
G|-4~-----------9-------7---------------------|
D|-4~-3-5-------9-------7-------2-7-6-5-4-3-2-|
A|-2~-3-5-------7-------5-------2-7-6-5-4-3-2-|
E|----1-3-00-00---00-00---00-00-0-5-4-3-2-1-0-|
pm        .. ..   .. ..   .. ..   . . . . . .    

Added On December 16th, 2013

SHARE

Comments

blog comments powered by Disqus

ADVERTISEMENT