Washya Tabs

Youll Never See The Evil Inside Me

1 versions

TAB

            -------------------------------------------------------------------------------
                   You'll Never See The Evil Inside Me - Washya
-------------------------------------------------------------------------------
Tabbed by:
E-mail:

Tuning: Drop B (BF#BEG#C#)
B|--------------------------------------------------|
F#|-------------------------------------------------|
B|--------------------------------------------------|
E|--0-2-0-4-0-0-2-1-0-5-0-4-0-2-0-4-0-0-2-1-0-5-0-4-|
G#|-0-2-0-4-0-0-2-1-0-5-0-4-0-2-0-4-0-0-2-1-0-5-0-4-|
C#|-0-2-0-4-0-0-2-1-0-5-0-4-0-2-0-4-0-0-2-1-0-5-0-4-|x3
PM  * * * * * * * * * * * * * * * * * * * * * 

Part 2 (all verses)
B|--------------------------------------------------------------------|
F#|-------------------------------------------------------------------|
B|--------------------------------------------------------------------|
E|--000-2p1h2p1p0-000-4-2-0-5-4-2-000-2p1h2p1p0-000-4-2-0-5-4-3-4-3-1-|
G#|-000-2p1h2p1p0-000-4-2-0-5-4-2-000-2p1h2p1p0-000-4-2-0-5-4-3-4-3-1-|
C#|-000-2p1h2p1p0-000-4-2-0-5-4-2-000-2p1h2p1p0-000-4-2-0-5-4-3-4-3-1-|
PM  ***           *** * * * * * * ***           *** * * * * * * *  

Chorus
B|----------------------------------------------------------------|
F#|---------------------------------------------------------------|
B|----------------------------------------------------------------|
E|--4-2-0-2-5-4-000------3-2-0-2\1-0-4-0-6-5-4-5-0-2-4-0-33p2-2-0-|
G#|-4-2-0-2-5-4-000-33p2-3-2-0-2\1-0-4-0-6-5-4-5-0-2-4-0------2-0-|
C#|-4-2-0-2-5-4-000------3-2-0-2\1-0-4-0-6-5-4-5-0-2-4-0------2-0-|


************************************

| /   slide up
| \   slide down
| h   hammer-on
| p   pull-off
| ~   vibrato
| +   harmonic
| x   Mute note
| b   Bend
| pb  Pre-bend
| br  Bend release
| pbr Pre-bend release
| brb Bend release bend

************************************    

Added On January 29th, 2015

SHARE

Comments

blog comments powered by Disqus

ADVERTISEMENT