Waylon Jennings Tabs

Waltz Me To Heaven

1 versions

TAB

            Waltz Me To Heaven Tab by Waylon Jennings


this is a pretty song to learn so here it is RETABBED BY JAMES PUGRAD.

e---2-2---------------------2-2-------------3-3----|
b---3-3----------2-2--------3-3-------------3-3----| riff 1
g---2-2----------2-2--------4-4-------------0-0----|
d-0--------------2-2--------4-4-------------0-0----|
a--------------0----------2-----------------2-2----|
e----------------------------------------3---------|
its been   a  long time  since  i hade a  good time

e----2-2------------------------------3-3-----|
b----3-3----------2-2-----------------3-3-----|  riff 2
g----2-2----------2-2-----------------0-0-----|
d--0--------------2-2-----------------0-0-----|
a---------------0---------------------2-2-----|
e---------------------------------3-----------|
and i think     its high   time  i did

 CHORUS
e---3-3-----3-3----------2-2-----2-2-----------|
b---2-2-----2-2----------3-3-----3-3-----------|
g---2-2-----2-2----------2-2-----2-2-----------|
d---2-2-----2-2-------0-------0----------------|
a-0-------0------------------------------------|
e----------------------------------------------|
SO WALTZ   ME TO HEAVEN TO NIGHT

E----0-0-------0-0-----3-3-----3-3------3-3-----------|
B----2-2-------2-2-----3-3-----3-3------3-3-----------|
G----3-3-------3-3-----0-0-----0-0------0-0------0-0--|
D----4-4-------4-4-----0-0-----0-0------0-0------0-0--|
A-4-------4------------2-2-----2-2------2-2------2-2--|
E--------------------3-------3-------3---------4------|

e----2-2-------3-3----2-2-------------3-3-------------2----|
b----3-3-------3-3----3-3-----2-2-----3-3-----------3------|
g----4-4-------0-0----2-2-----2-2-----0-0----------2-------|
d----4-4-------0-0--0---------2-2-----0-0--------0---------|
a-2------------2-2---------0----------2-2------0-----------|
e----------3------------------------3----------------------|

for all the lyrics in the song play them uesing riffs 1 and 2 in that order and for the 
ues the chorus i put there. this is 100% right if u can get it in the right 
!DO NOT FOLLOW THE LYRICS UNDER THE TAB FOR TIMING BECAUSE THEY ARE NOT TIMED RIGHT!    

Added On December 16th, 2013

SHARE

Comments

blog comments powered by Disqus

ADVERTISEMENT