We Are The Ocean Tabs

Now And Then

1 versions

TAB

            -------------------------------------------------------------------------------
		   Now And Then - We Are The Ocean (Album: Go Now and Live)
-------------------------------------------------------------------------------
Tabbed by: Justin P
Email: justinagogo@gmail.com

Tuning: Standard

                                                                         "Hey..."
e|----------------------------------------------------------------------------0--|
B|----------------------------------------------------------------------------1--|
G|--55555555------------------------------------------------------------------0--|
D|--55555555-33333333-555555555555555-77777777-55555555-333333333333333-------3--|
A|--33333333-33333333-555555555555555-77777777-55555555-333333333333333----------|
E|-----------11111111-333333333333333-55555555-33333333-111111111111111----------|

  Verse 1, Liam: "There's a side..."    "Do you think that there..."
e|-------------------------------------------------------------------------------|
B|------------1-------------1-------------1------3------1------------------------|
G|------------0------4------2-------------0------4------2------------------------|
D|------------2------5------3-------------2------5------3------------------------|
A|------------3------5--------------------3------5------3------------------------|
E|-------------------------------------------------------------------------------|

  "I won't cover it up just give me time"   "I won't cover it up..."
e|-------------------------------------------------------------------------------|
B|------------1-------------1-----------------1------3---------------------------|
G|------------0------4------2-----------------0------4---------------------------|
D|------------2------5------3-----------------2------5---------------------------|
A|------------3------5------------------------3------5---------------------------|
E|-------------------------------------------------------------------------------|

 Pre-chrous, Liam: "As I start to lose myself, I just need somebody's help"
e|-------------------------------------------------------------------------------|
B|-------------------------------------------------------------------------------|
G|-----(All Palm Muted)------------(All Palm Muted)----------(All Palm Muted)----|
D|-------------------------------------------------------------------------------|
A|--55555555-77777777-3333333333333333--55555555-77777777-3333333333333333-------|
E|--33333333-55555555-1111111111111111--33333333-55555555-1111111111111111-------|

        Chorus: "Every now and then, I break your heart..."             
e|-------------------------------------------------------------------------------|
B|-------------------------------------------------------------------------------|
G|--55555555---------------------------------------------------------------------|
D|--55555555-33333333-555555555555555-77777777-55555555-333333333333333---X2-----|
A|--33333333-33333333-555555555555555-77777777-55555555-333333333333333----------|
E|-----------11111111-333333333333333-55555555-33333333-111111111111111----------|

         For Verse 2, sung of Dan, repeat Verse 1 on guitar,
         and then repeat the chorus. After that, play this:
   
      Bridge, spoken by Liam:  "I've tried a million times..."       
e|-------------------------------------------------------------------------------|
B|-------1---1---1---------1-----------------------------------------------------|
G|-------2---0---2---------2---4---2---------------------------------------------|
D|-------2---2---3---------2---5---3-------REPEAT 4 TIMES------------------------|
A|-------0---3---3---------0---5---3---------------------------------------------|
E|-------------------------------------------------------------------------------|

       Finish off with the chorus and there you have it. It's a beautiful new
       song off the We Are The Ocean's latest album 'Go Now And Live.' If there
       is enough interest, I'll tab out the lead part.    

Added On December 16th, 2013

SHARE

Comments

blog comments powered by Disqus

ADVERTISEMENT