Weezer Tabs

Smile

4 versions

TAB

            Verse
   e5  g#5  a5   f#5   b5  a6   g#   e5
e|-x----x----x----x----x----x----x----x-|
B|-x----x----x----x----x----x----x----x-|
G|-x----x----2----x----4----2----6----x-|
D|-2----6----2----4----4----4----6----2-|
A|-2----6----0----4----2----0----4----2-|
E|-0----4----x----2----2----x----4----0-|

Chorus:
     A5    B5   E5 C#5/G# A5   B5
e|----x----x----x----x----x----x---------------------------------------------|
B|----x----x----x----x----x----x---------------------------------------------|
G|----2----4----x----6----2----4---------------------------------------------|
D|----2----4----2----6----2----4---------------------------------------------|
A|----0----2----2----4----0----2---------------------------------------------|
E|----x----2----0----4----x----2---------------------------------------------|

brigde:
     A5   B5   E5   E6   G#   G#5  A5   F#
e|----x----x----x----x----x----x----x----x---------------------------------|
B|----x----x----x----x----x----x----x----x---------------------------------|
G|----2----x----x----x----6----x----2----4---------------------------------|
D|----2----4----2----2----6----6----2----4---------------------------------|
A|----0----4----2----4----4----6----0----2---------------------------------|
E|----x----2----0----0----4----4----x----2---------------------------------|
Solo thing:
e|-------------------------------------------------------------------------|
B|-------------------------------------------------------------------------|
G|------------------------------------------11----11------11----11--11--11-|
D|--11-14-11-14---11-14-11-14--14--14----14----14------14----14------------|
A|-------------------------------------------------------------------------|
E|-------------------------------------------------------------------------|

e|-------------------------------------------------------------------------|
B|-------------------------------------------------------------------------|
G|-------------------------------------------------------------------------|
D|-------------------------------------------------------------------------|
A|--14-14--14------12-11-12-12--12--11-------------------------------------|
E|-------------------------------------------------------------------------|

I was bored so i made this.    

Added On December 16th, 2013

SHARE

Comments

blog comments powered by Disqus

VERSIONS

ADVERTISEMENT