Whiskeytown Tabs

Heres To The Rest Of The World

1 versions

TAB

            e|0-1-0---------------------------------|
B|------3---0-1-0--------------1--------|
G|--------2-------2-----------0-0---2-0-|
D|------------------2-------2-----2-----|
A|--------------------0-2-3-------------|
E|--------------------------------------|

Verses: Dm Am C F

e|----------0-2-3-|
B|------1-3-------|
G|0-2-4-----------|
D|----------------|
A|----------------|
E|----------------|

Refrain: C Em F Am
F         C           F C
Except people like me    

Added On December 16th, 2013

SHARE

Comments

blog comments powered by Disqus

ADVERTISEMENT