White Denim Tabs

Our Get

1 versions

TAB

            ARTIST: White Denim
ALBUM: Last Day of Summer
SONG: Our Get
YEAR: 2010
TABBED BY: and frosting


Tuning: Standard (E A D G B e)
Chords Used:
Eadd9: 0241xx
Aadd9: x0242x
Emaj7(no3):0x244x
C#m-aug5(w5):x06650

		    Intro/Verse (acoustic guitar w/ reverb)
e|-----------------------------------------------------------------------------------|
B|--------------------then-->------------------------2-------------------------------|
G|----------1------------------------------------4-----4----------------4--------4---|
D|------4-----4-----------------4--------4-----2---------2-------x3---2--------2-----|
A|----2---2-----2--------x3---2--------2-----0-----0-------0-0-------------0-0-------|
E|--0-------------0-0-------------0-0------------------------------------------------|

		Once the vocals come in there is a strings section playing something like this
(matched up with above section):
e|--------------------------------------------0--------------------------------------|
B|--4-----------------------------------------5--------------------------------------|
G|--4-----------------------------------------6--------------------------------------|
D|--2-----------------------------------------6--------------------------------------|
A|--x-----------------------------------------0--------------------------------------|
E|--0--------------------------------------------------------------------------------|


		Every verse has this fill, beginning after the second set of E based arpeggios
begins. The use of the fills alternates between verses.

		Fill 1
e|-----------------------------------------------------------------------------------|
B|-----------------------------------------------------------------------------------|
G|--16b18-pb18--13h16p13-11-9-6-----11b13-pb13--9h11--6-9-11/13----------------------|
D|-----------------------------------------------------------------------------------|
A|-----------------------------------------------------------------------------------|
E|-----------------------------------------------------------------------------------|

Fill 2
e|-----------------------------------------------------------------------------------|
B|---------------------------------------------------------------12------------------|
G|--16b18-pb18--13h16r13--11-9-6-----11b13-pb13--9h11--6-9-11-13----13---------------|
D|--16b18-pb18--14h16r14-------------------------------------------------------------|
A|-----------------------------------------------------------------------------------|
E|-----------------------------------------------------------------------------------|

Right before the solo, there's a quick little bridge/break:
  Abm       E            F#m        B7sus4
e|---4------7----9-----7-------------------------------------------------------------|
B|---4------9----10----7-------------------------------------------------------------|
G|---4------9----11----9-------------------------------------------------------------|
D|---6------9----11----7-------------------------------------------------------------|
A|--------7----9-------9-------------------------------------------------------------|
E|-4-----------------7---------------------------------------------------------------|


 	After a couple of verses, the solo begins. The whole rhythm changes, as do
the chords, and pardon my French but this is some crazy s**t right here.

E			Ab5		  Amaj7 no3			Bb7 no3		  B
e|-----------------------------------------------------------------------------------|
B|------------17---------------------------------------------------------------------|
G|---13-16h18----16h18-r16---11h13-16-18--11------15-11---------------------9-11-----|
D|------------------------------------------11----------11-8-9-8------9-11-------11--|
A|---------------------------------------------------------------9-11----------------|
E|-----------------------------------------------------------------------------------|

   Amaj7							A
e|-----------------------------------------------------------------------------------|
B|-----------------------------------------------------------------------------------|
G|-------------------11-16-13-16h18-pb13r11-9-11-------------------------------------|
D|-------11-14-13-14-----------------------------11----------------------------------|
A|-11-12-----------------------------------------------------------------------------|
E|-----------------------------------------------------------------------------------|
   A				   A				 			A
e|-----------------------------------------------------------------------------------|
B|-----------------------------------17-----------17/19-17---------------------------|
G|-------16-18-16-18/20-18-16----16-----18-16--------------18------------------------|
D|-16-18----------------------18--------------18-------------------------------------|
A|-----------------------------------------------------------------------------------|
E|-----------------------------------------------------------------------------------|
   E				  E					Emaj7
e|-----------------------------------------------------------------------------------|
B|----16b17r18--------------------19-16----------------------------------------------|
G|-16-----------18p16h18p16h18p16--------16b18r16--------------------18/20-16--------|
D|-------------------------------------------------18p16h18p16h18p16-----------------|
A|-----------------------------------------------------------------------------------|
E|-----------------------------------------------------------------------------------|
   E				  E		        Emaj7
e|-----------------------------------------------------------------------------------|
B|-----------------------------------------------------------------------------------|
G|-----------------------------------------------------------------------------------|
D|-14-11h14r11-9-----9-6h9p6-6-4-----------------------9-----------------------------|
A|---------------11---------------7p4h7p4-9/11-11---11---11--------------------------|
E|-----------------------------------------------------------------------------------|
   B	 	  B7	  	    B		B7		  C#m7
e|-----------------------------------------17\9--9-12-14-16--11----11h12-------------|
B|-7tr-9tr-10tr-12tr-14tr-16tr-17tr-19tr-----------------------12--------14-10-------|
G|--------------11tr-13tr-14tr-16tr-18tr---------------------------------------------|
D|-----------------------------------------------------------------------------------|
A|-----------------------------------------------------------------------------------|
E|-----------------------------------------------------------------------------------|
   B			  E*2
e|-9h11------------------------------------------------------------------------------|
B|------12---------------------------------------------------------------------------|
G|---------11--9---------------------------------------------------------------------|
D|-----------------------------------------------------------------------------------|
A|-----------------------------------------------------------------------------------|
E|-----------------------------------------------------------------------------------|


************************************
Chord diagrams for solo:
E:         x7999x
Ab5:       xx698xx
Amaj7 no3: xx799xx
Bb7 no3:   xx899xx
B:         799877
Amaj7:     576655
A:         577655
Emaj7:     x79897
B7:        797877
C#m7:      x46454
E*2:       022100

 Enjoy! Questions or comments can be posted here, on the tab,
 or my UG Profile (and frosting).
************************************

| /   slide up
| \   slide down
| h   hammer-on
| p   pull-off
| ~   vibrato
| +   harmonic
| x   Mute note
| b   Bend
| pb  Pre-bend
| br  Bend release
| pbr Pre-bend release
| brb Bend release bend

************************************    

Added On December 16th, 2013

SHARE

Comments

blog comments powered by Disqus

ADVERTISEMENT