White Reaper Tabs

Judy French

1 versions

TAB

            Capo 1 or tune 1/2 step up.
[Intro]
e|-0-0-0-0---0-0-0-0--0--------------------|
B|-0-0-0-1---0-0-0-1--1--------------------|
G|-0-0-0-0---0-0-0-0--0-----2-------4------| repeat x4, end the last one with:
D|------------------------3--3----5--5-----|
A|-----------------------3-3-----5-5--5----|
E|----------------------1-------3----------|

e|-------------|
B|-------------|
G|-----2-------|
D|---3--3-5----|
A|--3-3---3----|
E|-1------3----|

[Verse]
(starts off with just bass, then the guitar comes in)
e|-------------------|
B|-1-1-1-0-1-0-1-0---|
G|--0-0-0-0-0-0-0-0--| repeat x4
D|-------------------|
A|-------------------|
E|-------------------|

[Chorus]
e|---------------------------------------------------------------------------------------------------|
B|---------------------------------------------------------------------------------------------------|
G|-5---------------------------------5--5-5-5-5-5-5-5-5------------------------------5--5-5-5-5-5-5--|
D|-5---5-7--7-7-7-7-7-7-7-3-3-3-5-5--5--5-5-5-5-5-5-5-5-5-7--7-7-7-7-7-7-7-3-3-3-5-5-5--5-5-5-5-5-5--|
A|-3---5-7--7-7-7-7-7-7-7-3-3-3-5-5--3--3-3-3-3-3-3-3-3-5-7--7-7-7-7-7-7-7-3-3-3-5-5-3--3-3-3-3-3-3--|
E|-----3-5--5-5-5-5-5-5-5-1-1-1-3-3---------------------3-5--5-5-5-5-5-5-5-1-1-1-3-3-----------------|

e|-0-0-0-0---0-0-0-0--0------------------0-0-0-0---0-0-0-0---------------|
B|-0-0-0-1---0-0-0-1--1------------------0-0-0-1---0-0-0-1---------------|
G|-0-0-0-0---0-0-0-0--0-----2-------4----0-0-0-0---0-0-0-0------2--------|
D|------------------------3--3----5--5------------------------3--3-5-----|
A|-----------------------3-3-----5-5--5----------------------3-3---5-----|
E|----------------------1-------3--------------------------1-------3-----|

[Verse 2]
e|-0-0-0-----0-----0--------|
B|--1-1-1-0-1-1-0-1-1-0-1---|
G|--------------------------| repeat x4
D|--------------------------|
A|--------------------------|
E|--------------------------|

[Chorus 2]
e|-------------------------------------------------------------------------------------|
B|-------------------------------------------------------------------------------------|
G|-5---------------------------------5--5-5-5-5-5-5-5-5--------------------------------|
D|-5---5-7--7-7-7-7-7-7-7-3-3-3-5-5--5--5-5-5-5-5-5-5-5-5-7--7-7-7-7-7-7-7-3-3-3-3-3---|
A|-3---5-7--7-7-7-7-7-7-7-3-3-3-5-5--3--3-3-3-3-3-3-3-3-5-7--7-7-7-7-7-7-7-3-3-3-3-3---|
E|-----3-5--5-5-5-5-5-5-5-1-1-1-3-3---------------------3-5--5-5-5-5-5-5-5-1-1-1-1-1---|

[Solo]
e|----------------------------------------------------------|
B|--8-8-----------------------------------------------------|
G|-9---7b-7b-----------------7-9-10-/12-10--9-10-9-7-9------|
D|-----------10-7---7--7-9-10-------------------------10~---|
A|----------------------------------------------------------|
E|----------------------------------------------------------|

e|-0-0-0-0-0-0-0-0-0-0-0-0-0-0-0--0----------------------0-0-0-0--0-0-0-0---------|
B|-1-1-1-1-0-0-0-0-1-1-1-1-0-0-1--1----------------------0-0-0-1--0-0-0-1---------|
G|-0-0-0-0-0-0-0-0-2-2-2-2-0-0-2--2-------5-7b-7-5~-5\---0-0-0-0--0-0-0-0---------|
D|-------------------------------------5-7----------------------------------------|
A|----------------------------------5-7-------------------------------------------|
E|--------------------------------------------------------------------------------|

e|-3h5p3--------------------------------------------------3-----------------------|
B|------6-5-6-3~---3-5-6/8\6-5-3-5-1------0-1-3/5\3-1-0-1-3-----------------------|
G|----------------------------------2-2-2-----------------------------------------|
D|------------------------------------------------------------3-------------------|
A|------------------------------------------------------------3------3-5h7-5-3----|
E|------------------------------------------------------------1--1/3--------------|

Just bass part, then 

[Chorus]
e|---------------------------------------------------------------------------------------------------|
B|---------------------------------------------------------------------------------------------------|
G|-5---------------------------------5--5-5-5-5-5-5-5-5------------------------------5--5-5-5-5-5-5--|
D|-5---5-7--7-7-7-7-7-7-7-3-3-3-5-5--5--5-5-5-5-5-5-5-5-5-7--7-7-7-7-7-7-7-3-3-3-5-5-5--5-5-5-5-5-5--|
A|-3---5-7--7-7-7-7-7-7-7-3-3-3-5-5--3--3-3-3-3-3-3-3-3-5-7--7-7-7-7-7-7-7-3-3-3-5-5-3--3-3-3-3-3-3--|
E|-----3-5--5-5-5-5-5-5-5-1-1-1-3-3---------------------3-5--5-5-5-5-5-5-5-1-1-1-3-3-----------------|

[Outro]
It's hard to hear the guitar at this point but he's doing something like this:

e|-0-0-0-0-0-0-0-0-0--1-1-0--0-0-0-0-0----|
B|-1-1-1-1-1-1-1-1-1--1-1-1--1-0-1-0-1----|
G|-0-0-0-0-0-0-0-0-0--0-0-0--0-0-0-0-0----| repeat x2
D|----------------------------------------|
A|----------------------------------------|
E|----------------------------------------|

then it ends with a sort of combination of the into and chorus:

e|-0-0-0-0---0-0-0-0--0-------------------0-0-0-0---0-0-0--0--------------|
B|-0-0-0-1---0-0-0-1--1-------------------0-0-0-1---0-0-0--1--------------|
G|-0-0-0-0---0-0-0-0--0-----5-5-5-5-5-5---0-0-0-0---0-0-0--0--------------| 
D|----------------------3-3-5-5-5-5-5-5-----------------------3-3-3-3-3---|
A|----------------------3-3-3-3-3-3-3-3-----------------------3-3-3-3-3---|
E|----------------------1-1-----------------------------------1-1-1-1-1---|


************************************

| h   Hammer-on
| p   Pull-off
| b   Bend
| /   Slide up
| \   Slide down
| ~   Vibrato

************************************    

Added On May 18th, 2017

SHARE

Comments

blog comments powered by Disqus

ADVERTISEMENT