Whole Wheat Bread Tabs

Old Man Samson

1 versions

TAB

            Old Man Samson Tab by Whole Wheat Bread


This group is good at punk rock, but aren't really that good at rap. Strum and chord
patterns should be easy to follow too. Check out their website, www.wholewheatbread.net
Tabbed by: Seann


Intro
  
e--------------------------------------------------------------|
B-----7-7-7-7---7----7-9-9-9-9-7--------7-7-7-7---7------------|
G---8---------8----8-------------8----8---------8---9-8-6-6-8-6|
D-9---------------------------------9--------------------------|
A--------------------------------------------------------------|
E--------------------------------------------------------------|

e--------------------------------------------------------------|
B-----7-7-7-7---7----7-9-9-9-9-7--------7-7-7------------------|
G---8---------8----8------------8----8-------9-8-6-6-8-4-------|
D-9--------------------------------9---------------------------|
A--------------------------------------------------------------|
E--------------------------------------------------------------|

Verse

e--------------|
B--------------|
G-5-10-5--5----|
D-5-10-5--3-5--|
A-3-8--3--3-5--|
E-----------3--|

Chorus

e--------------|
B--------------|
G-----5--2-----|
D--3--5--2--5--|
A--3--3--0--5--|
E--1--------3--|    

Added On December 16th, 2013

SHARE

Comments

blog comments powered by Disqus

ADVERTISEMENT