Whole Wheat Bread Tabs

Scar Your Lungs

1 versions

TAB

            Scar Your Lungs
Whole Wheat Bread
Minority Rules
Transcribed by Vennie
myspace.com/footlongsub


I listened to the song and figured out the basic chords
and they could be slightly off from the real thing.
If you have any ways to make it sound better, leave
a comment.


The chords are there you just need to figure out the strumming for yourself.
It's kind of hard to tab out the strumming with all the muted strumming in
the song.



Intro


e|-------------------------------------|
B|-------------------------------------|
G|--7---5---8---10---------------------|
D|--7---5---8---10---8-----------------|
A|--5---3---7---8----8-----------------|
E|-------------------6-----------------|



Verse


e|-------------------------------------|
B|-------------------------------------|
G|----------7---5---8---10-------------| 
D|--3---8---7---5---8---10---8----x2---|
A|--3---8---5---3---7---8----8---------|
E|--1---6--------------------6---------|


Chorus


e|-----------------------------------------------------------------|
B|-------E---------------------------------------------------------|
G|----K-D-----------------------8-9-10---------------------12-11---|
D|---C-I------7-7---7-7---7-7---8-9-10---8-8---8-8---8-8---12-11---|
A|--I-L-------7-7-7-7-7-7-7-7-7-6-7-9----8-8---8-8---8-8---10-9----|
E|-P-S--------5-5-0-5-5-0-5-5-0----------6-6-0-6-6-0-6-6-0---------|

e|------------------------------------------------|
B|------------------------------------------------|
G|--------------------8-9-10----------------------|
D|--7-7---7-7---7-7---8-9-10---8-8---8-8---8------|
A|--7-7-7-7-7-7-7-7-7-6-7-9----8-8---8-8---8------|
E|--5-5-0-5-5-0-5-5-0----------6-6-0-6-6-0-6------|


e|-----------------------------------------------------------------------|
B|-----------------------------------------------------------------------|
G|--10-10-10------------7-7-7--5-5-5----------------5-5-5-5--------------|
D|--10-10-10--10-10-10--7-7-7--5-5-5--8-7----8-7----5-5-5-5-------x2-----|
A|--8--8--8---10-10-10--5-5-5--3-3-3--8-7-7--8-7-7--3-3-3-3--------------|
E|------------8--8--8-----------------6-5-0--6-5-0-----------------------|



e|-----------------------------------|
B|-----------------------------------|
G|----------7---5---8---10-----------| 
D|--3---8---7---5---8---10---8-------|
A|--3---8---5---3---7---8----8-------|
E|--1---6--------------------6-------|


Verse 2


e|------------------------------------------------|
B|---------------------------------------------E--|
G|-------------7---5---8---10---------------K-D---| 
D|--3------8---7---5---8---10---8----x2----C-I----|
A|--3------8---5---3---7---8----8---------I-L-----|
E|--1------6--------------------6--------P-S------|


Chorus


e|--------------------------------------------------------|
B|--------------------------------------------------------|
G|--------------------8-9-10---------------------12-11----|
D|--7-7---7-7---7-7---8-9-10---8-8---8-8---8-8---12-11----|
A|--7-7-7-7-7-7-7-7-7-6-7-9----8-8---8-8---8-8---10-9-----|
E|--5-5-0-5-5-0-5-5-0----------6-6-0-6-6-0-6-6-0----------|

e|------------------------------------------------|
B|------------------------------------------------|
G|--------------------8-9-10----------------------|
D|--7-7---7-7---7-7---8-9-10---8-8---8-8---8------|
A|--7-7-7-7-7-7-7-7-7-6-7-9----8-8---8-8---8------|
E|--5-5-0-5-5-0-5-5-0----------6-6-0-6-6-0-6------|


e|---------------------------------------------------------------------|
B|---------------------------------------------------------------------|
G|--10-10-10------------7-7-7--5-5-5----------------5-5-5-5------------|
D|--10-10-10--10-10-10--7-7-7--5-5-5--8-7----8-7----5-5-5-5-------x2---|
A|--8--8--8---10-10-10--5-5-5--3-3-3--8-7-7--8-7-7--3-3-3-3------------|
E|------------8--8--8-----------------6-5-0--6-5-0---------------------|


Bridge


e|--------------------------------|
B|--------------------------------|
G|----------7---5-----------------|
D|--3---8---7---5---8-------------|
A|--3---8---5---3---8-------------|
E|--1---6-----------6-------------|


This part has a guitar solo type thing 
and I can't figure it out. So you're
on your own on that.


e|---------------------------------------|
B|---------------------------------------|
G|------------------7------5-------------|
D|--3-------8-------7-x5---5-x5---8------|
A|--3-x12---8-x12---5------3------8-x6---|
E|--1-------6---------------------6------|


Drum Solo



Chorus


e|--------------------------------------------------------|
B|--------------------------------------------------------|
G|--------------------8-9-10---------------------12-11----|
D|--7-7---7-7---7-7---8-9-10---8-8---8-8---8-8---12-11----|
A|--7-7-7-7-7-7-7-7-7-6-7-9----8-8---8-8---8-8---10-9-----|
E|--5-5-0-5-5-0-5-5-0----------6-6-0-6-6-0-6-6-0----------|

e|------------------------------------------------|
B|------------------------------------------------|
G|--------------------8-9-10----------------------|
D|--7-7---7-7---7-7---8-9-10---8-8---8-8---8------|
A|--7-7-7-7-7-7-7-7-7-6-7-9----8-8---8-8---8------|
E|--5-5-0-5-5-0-5-5-0----------6-6-0-6-6-0-6------|



~End    

Added On December 16th, 2013

SHARE

Comments

blog comments powered by Disqus

ADVERTISEMENT