Widespread Panic Tabs

B Of D

1 versions

TAB

            Main Theme (all over a Dm):     (quickly here, listen)
|-------------------------------------------------------10-|
|-----------------5----------------------------5-8-7-10-7--|
|.-----5----------5------5------------5--------5-5-7-7--7--|
|.-5-7---7-5-7----7--5-7---7-5-7--5-7---7-5-7--7-7-9-9--9--|
|--------------5--5--------------5-----------5-5-5-7-7--7--|
|----------------------------------------------------------|

|--------------------------------------------------------|
|-----------------5----------------------------5-8-7-10--|
|------5----------5------5------------5--------5-5-7-7--.|
|--5-7---7-5-7----7--5-7---7-5-7--5-7---7-5-7--7-7-9-9--.|
|--------------5--5--------------5-----------5-5-5-7-7---|
|--------------------------------------------------------|

Theme 2 (strumming throughout):
|-x-------x-------x---------------------------|
|-x-------x-------x---------------------------|
|-4-------4-------4---------------------------|x4
|-x-------x-------x---------------------------|
|-2-------x-------x---------------------------|
|-x-------2-------3---------------------------|
  B       F#      G

(Main Theme and Theme 2)

Jam over Dm with the same rhythm/timing as the Main Theme.

(Theme 2)

(Main Theme)

End with D > E (x4).    

Added On December 16th, 2013

SHARE

Comments

blog comments powered by Disqus

ADVERTISEMENT