Widespread Panic Tabs

The Earth Will Swallow You

1 versions

TAB

            Mike's part
Theme 1:
    /     /     /     /     /     /      /     /
|-----------------------------------------------------|
|------------------------9-----8----------------------|
|.--6--6--6--6--6--6--6--6--6--6--6--9--6--10--6--6--.|
|.--6--6--6--6--6--6--6--6--6--6--6--6--6---6--6--6--.|
|---8--8--8--8--8--8--8--8--8--8--8--8--8---8--8--8---|
|---6--6--6--6--6--6--6--6--6--6--6--6--6---6--6--6---|
    Bbm7

    /     /     /     /     /     /      /    /
|----------------------------------------------------|
|------------------------7-----6---------------------|
|.--4--4--4--4--4--4--4--4--4--4--4--7--4--8--4--4--.|
|.--4--4--4--4--4--4--4--4--4--4--4--4--4--4--4--4--.|
|---6--6--6--6--6--6--6--6--6--6--6--6--6--6--6--6---|
|---4--4--4--4--4--4--4--4--4--4--4--4--4--4--4--4---|
    Abm7

Theme 2:
|---3--3--3--3--3--3--3--3--4---|
|---3--3--3--3--3--3--3--3--4---|
|---5--5--5--5--5--5--5--5--6---|
|---5--5--5--5--5--5--5--5--6---|
|---3--3--3--3--3--3--3--3--4---|
|-------------------------------|
    Csus2                   C#sus2

When returning to Theme 1, start with the Ab7 riff    

Added On December 16th, 2013

SHARE

Comments

blog comments powered by Disqus

ADVERTISEMENT