William Elliott Whitmore Tabs

Diggin My Grave

1 versions

TAB

            Diggin’ My Grave
William Elliot Whitmore

(Banjo transcribed for guitar)

Intro & verse
E|--2---------------|-2----------|
B|--3---------------|-3----------|
G|--2---------------|-2----------|Repeat for 
D|--0----0--3--0--3-|-0----------|the D parts
A|------------------|------------|
E|------------------|------------|
    	
(tacit)			D
D
e |---|-x-|---|---|---|
B |---|---|-x-|---|---|
G |---|-x-|---|---|---|
D |---|---|---|---|---|
A |---|---|---|---|---|
E |---|---|---|---|---|
Well I’m digging my grave, I’m digging my grave A
A
e |---|---|---|---|---|
B |---|-x-|---|---|---|
G |---|-x-|---|---|---|
D |---|-x-|---|---|---|
A |---|---|---|---|---|
E |---|---|---|---|---|
My road to hell is surely paved D
D
e |---|-x-|---|---|---|
B |---|---|-x-|---|---|
G |---|-x-|---|---|---|
D |---|---|---|---|---|
A |---|---|---|---|---|
E |---|---|---|---|---|
With all the love that I never gave A
A
e |---|---|---|---|---|
B |---|-x-|---|---|---|
G |---|-x-|---|---|---|
D |---|-x-|---|---|---|
A |---|---|---|---|---|
E |---|---|---|---|---|
D
D
e |---|-x-|---|---|---|
B |---|---|-x-|---|---|
G |---|-x-|---|---|---|
D |---|---|---|---|---|
A |---|---|---|---|---|
E |---|---|---|---|---|
Well I’m digging my grave, I’m digging my grave And the hole is made, with pick and spade With all the debts nearly paid Oh, how I wish, that I could have stayed But the hole is made—Oh, the hole is made Break (walk D
D
e |---|-x-|---|---|---|
B |---|---|-x-|---|---|
G |---|-x-|---|---|---|
D |---|---|---|---|---|
A |---|---|---|---|---|
E |---|---|---|---|---|
,E
E
e |---|---|---|---|---|
B |---|---|---|---|---|
G |-x-|---|---|---|---|
D |---|-x-|---|---|---|
A |---|-x-|---|---|---|
E |---|---|---|---|---|
,F#
F#
e |---|-x-|---|---|---|
B |---|-x-|---|---|---|
G |---|---|-x-|---|---|
D |---|---|---|-x-|---|
A |---|---|---|-x-|---|
E |---|-x-|---|---|---|
) G
G
e |---|---|-x-|---|---|
B |---|---|---|---|---|
G |---|---|---|---|---|
D |---|---|---|---|---|
A |---|-x-|---|---|---|
E |---|---|-x-|---|---|
D
D
e |---|-x-|---|---|---|
B |---|---|-x-|---|---|
G |---|-x-|---|---|---|
D |---|---|---|---|---|
A |---|---|---|---|---|
E |---|---|---|---|---|
Oh and, the hole, is shallow where I must lay A
A
e |---|---|---|---|---|
B |---|-x-|---|---|---|
G |---|-x-|---|---|---|
D |---|-x-|---|---|---|
A |---|---|---|---|---|
E |---|---|---|---|---|
The hole is shallow, but that’s ok D
D
e |---|-x-|---|---|---|
B |---|---|-x-|---|---|
G |---|-x-|---|---|---|
D |---|---|---|---|---|
A |---|---|---|---|---|
E |---|---|---|---|---|
G
G
e |---|---|-x-|---|---|
B |---|---|---|---|---|
G |---|---|---|---|---|
D |---|---|---|---|---|
A |---|-x-|---|---|---|
E |---|---|-x-|---|---|
I’ll have peace on my final day D
D
e |---|-x-|---|---|---|
B |---|---|-x-|---|---|
G |---|-x-|---|---|---|
D |---|---|---|---|---|
A |---|---|---|---|---|
E |---|---|---|---|---|
A
A
e |---|---|---|---|---|
B |---|-x-|---|---|---|
G |---|-x-|---|---|---|
D |---|-x-|---|---|---|
A |---|---|---|---|---|
E |---|---|---|---|---|
D
D
e |---|-x-|---|---|---|
B |---|---|-x-|---|---|
G |---|-x-|---|---|---|
D |---|---|---|---|---|
A |---|---|---|---|---|
E |---|---|---|---|---|
Down in this shallow hole where I must lay This July ground, is mighty hard, This July ground, is mighty hard My back is broken, my hands are scarred This July ground is mighty hard Woah, I wish, I hadn’t sinned Woah, I wish, I hadn’t sinned So I could be with you again Woah, I wish, I hadn’t sinned Repeat Break Well this Iowa dirt is mighty cold This Iowa dirt is mighty cold And God will never rest my soul Down in this Iowa dirt, so cold Well I’m digging my grave, I’m digging my grave My road to hell is surely paved With all the love that I never gave Well I’m digging my grave, I’m digging my grave

Added On December 16th, 2013

SHARE

Comments

blog comments powered by Disqus

ADVERTISEMENT