Wintersun Tabs

Beyond The Dark Sun

5 versions

TAB

            Beyond The Dark Sun Tab by Wintersun


Alright guys I've made this tab alot better.

Tune down 1 step D G C F A D
D|------------------|------------------|------------------------------|
A|------------------|------------------|------------------------------|
F|12-----------11-9-|11----------------|14----------------------12-11-|
C|------------------|---77777777777777-|----10101010101010101010------|
G|---7777777777-----|------------------|------------------------------|
D|------------------|------------------|------------------------------|
PM   ..........         ..............       . . . . . . . . . . 
                          x3
D|-------------------------|----------------|----------------|
A|-------------------------|----------------|----------------|
F|--------14-12-11---12-11-|----------------|----------------|
C|12121212---------9-------|9---8---9--11---|9-----------9---|
G|-------------------------|7---6---7---9---|7---8---9---7---|
D|-------------------------|----------------|----6---7-------|
PM. . . . 

D|------------------|------------------|------------------------------|
A|------------------|------------------|------------------------------|
F|12-----------11-9-|11----------------|14----------------------12-11-|
C|------------------|---77777777777777-|----10101010101010101010------|
G|---7777777777-----|------------------|------------------------------|
D|------------------|------------------|------------------------------|
PM   ..........         ..............       . . . . . . . . . . 
                          x2
D|-------------------------|
A|-------------------------|
F|--------14-12-11---12-11-|
C|12121212---------9-------|
G|-------------------------|
D|-------------------------|
PM. . . . 

I fixed the tuning, positions etc. I will finish the whole tab in a few months.

high_voltage_acdc    

Added On December 16th, 2013

SHARE

Comments

blog comments powered by Disqus