Wintersun Tabs

Sadness And Hate

2 versions

TAB

            Sadness And Hate Tab by Wintersun


-------------------------------------------------------------------------------
			     Sadness and Hate - Wintersun
-------------------------------------------------------------------------------
Tabbed by: Arseface and Arseface’s friend
Email:extremo_mchedgehog@hotmail.co.uk

Tuning: Standard

Intro riff 1. This is played in the acoustic intro and in various different ways once 
instruments come in and sometimes goes up a string or two, but the idea remains the same
e|-----------------------------------------------------------------------------|
B|-----------------------------------------------------------------------------|
G|--------20-------------------------------------------------------------------|
D|235320-0--3-235320-0---------------------------------------------------------|
A|------4-----------4----------------------------------------------------------|
E|-----------------------------------------------------------------------------|

Intro riff 2. This normally comes after riff 1 has been played a couple of times
e|---------------------------------------------------------------------------|
B|---------------------------------------------------------------------------|
G|---------------------------------------------------------------------------|
D|-0--235323-023-020--0------------------------------------------------------|
A|4------------------4-------------------------------------------------------|
E|---------------------------------------------------------------------------|

This is the start of what he plays after the almighty “rrrrrrrrrrrrrrrrrrrr” but I can’t work it all out
e|-----------------------------------------------------------------------------|
B|-----------------------------------------------------------------------------|
G|-----------------------------------------------------------------------------|
D|-----------------------------------------------------------------------------|
A|-77646--77646--66535-66535---------------------------------------------------|
E|-----------------------------------------------------------------------------|

If anyone wants to add some to this I’ll be very grateful
| /  slide up
|   slide down
| h  hammer-on
| p  pull-off
| ~  vibrato
| +  harmonic
| x  Mute note
===============================================================================    

Added On December 16th, 2013

SHARE

Comments

blog comments powered by Disqus

VERSIONS

ADVERTISEMENT